>
 >
Coffee Shop 2

Coffee Shop 2 Guitar Tabs

Red Hot Chili Peppers - Coffee Shop 2 chords, tabs, tablatures, lyrics

Guitar lessons | Add/correct | Request | Top 50 tabs Artists:  A B C D E F G H I J K L M N O P Q R S T U V W X Y Z 0-9

Coffee Shop 2 Guitar Tabs – Red Hot Chili Peppers

CD, Sheet music, Poster

Do you like Coffee Shop 2? Share with your friends now
Bass TabsTabsTabs v2Tabs v3
Coffee Shop

   intro

e------00-0----0-!
b-55-5-------0---!  
g----------------!     x's 3
d----------------!
a----------------!
e----------------!


          verse

e-------------!------------!
b-------------!------------!
g-----------4-!-3--3/12~~~-!
d-2-2---2-----!------------!
a-2-2---2-----!------------!
e-0-0---0-----!------------!


           chorus
 
e------------!-----------!------------!-----------!
b------------!-----------!------------!-----------!
g------------!-----------!-------5-5--!-----------!
d-7-7---5-5--!-2-2-2--2--!-7-7---5-5--!-2-2-2--2--!
a-7-7---5-5--!-2-2-2--2--!-7-7---3-3--!-2-2-2--2--!
e-5-5---3-3--!-0-0-0--0--!-5-5--------!-0-0-0--0--!

e-------------!------------!------------!-----------------!
b-------------!------------!------------!-----------------!
g-------------!------------!------------!-----------------!
d-7-77---5-5--!-4--4-4--4--!-7-7/10-777-!-7-7-7-7-7-7-7-7-!
a-7-77---5-5--!-4--4-4--4--!-7-7/-8-777-!-7-7-7-7-7-7-7-7-!
e-5-55---3-3--!-2--2-2--2--!-5-5/-8-555-!-5-5-5-5-5-5-5-5-!


          Bass solo

e-15--------------!-15----------15-15-!-15--------------!-15--------------!
b-15--------------!-15--------15---15-!-15--------------!-15--------------!
g-12--------------!-12----------------!-12--------------!-12--------------! x's2
d-----------------!-------------------!-----------------!-----------------!
a-----------------!-------------------!-----------------!-----------------!
e-----------------!-------------------!-----------------!-----------------!

    
        bridge

e-------------------!-----------------!
b-------------------!-----------------!
g----9-----7--6~--7-!------5-4-5-5/12-!
d-------------------!----7------------!
a-7-----5-----------!--5--------------!
e-------------------!-----------------!

e-------------------!------------------!
b-------------------!------------------!
g----9-----7--6~--7-!---------76-------!
d-------------------!-------6----7-57--!
a-7-----5-----------!--4--5------------!
e-------------------!------------------!

e-------------------!------10------10--!
b-------------------!------10------10--!
g----9-----7--6~--7-!--6/7-7--9p7--7---!
d-------------------!------------------!
a-7-----5-----------!------------------!
e-------------------!------------------!

e-------------------!----------------!
b-------------------!----------------!
g----9-----7--6~--7-!----------------!
d-------------------!----------------!
a-7-----5-----------!--11--10--9--8--!
e-------------------!----------------!

e-------------!------------!------------!-------------!
b-------------!------------!------------!-------------!
g-------------!6~~~~~~~~~~~!7~~~~~~~~~~~!9~~~~~~~~~~~~!
d-9~~~~~~~~~~~!------------!------------!-------------!
a-------------!------------!------------!-------------!
e-------------!------------!------------!-------------!


        outro

e---------------!--------------!
b---------------!--------------!
g---------------!--------------!   x's 5
d-2--2-2--2--4--!--3~~~~~~~~---!
a-2--2-2--2-----!--------------!
e-0--0-0--0-----!--------------!

e----------------------------
b----------------------------
g-3~~~~~~~~~~~~~~~~~~~~------  till end
d----------------------------
a----------------------------
e----------------------------

      end part
e----------------------------------
b----------------------------------
g-4/3--4/3--4/3--4/3--4/3--4/3-----
d----------------------------------
a----------------------------------
e----------------------------------





Comments


Popular Red Hot Chili Peppers tabs & chords
Blood Sugar Sex Magik 2 Bass Tabs
Breaking The Girl 3 Bass Tabs
Charlie Bass Tabs
Emit Remmus 2 Bass Tabs
Falling Into Grace 7 Bass Tabs
Green Heaven Bass Tabs
Special Secret Song Inside 1 Bass Tabs
Fire Tabs
Tear Tabs
Tiny Dancer 2 Tabs


Song lyrics



↑ Back to top | Tablatures and chords are parodies/interpretations of the original songs. You may use it for private study, scholarship, research or language learning purposes only
© 2014 AZChords.com Contact us | Privacy policy | DMCA | Add/correct tabs | Request tabs | Top 50 tabs