>
 >
Charlie 2

Charlie 2 Guitar Tabs

Red Hot Chili Peppers - Charlie 2 chords, tabs, tablatures, lyrics

Guitar lessons | Add/correct | Request | Top 50 tabs Artists:  A B C D E F G H I J K L M N O P Q R S T U V W X Y Z 0-9

Charlie 2 Guitar Tabs – Red Hot Chili Peppers

CD, Sheet music, Poster

Do you like Charlie 2? Share with your friends now
Bass TabsBass Tabs v2Bass Tabs v3Drum TabsTabsTabs v2Tabs v3Tabs v4Tabs v5
INTRO-
e--------------|
B--------------|
G------3-----3-|
D---3-2---3-2--|
A--2-1---2-1---|
E-1-----1------|
RIFF-
e-33x3x3xx33x3x3-33x3x3xx33x3x3-|
B-33x3x3xx33x3x3-33x3x3xx33x3x3-|
G-33x3x3xx33x3x3-33x3x3xx33x3x3-|
D-------------------------------|
A-------------------------------|
E-------------------------------|
Do it as much as times necessary.Then:
e-/1515x15x15xx1515x15x15-1515x15x15xx1515x15x15-|
B-/1515x15x15xx1515x15x15-1515x15x15xx1515x15x15-|
G-/1515x15x15xx1515x15x15-1515x15x15xx1515x15x15-|
D------------------------------------------------|
A------------------------------------------------|
E------------------------------------------------|
Do it as much as times necessary.
CHORUS-
e---------------------------------|
B-x8x8xx8x6x6xx6x10x10xx10x8x8xx8-|
G-x8x8xx8x7x7xx7x10x10xx10x8x8xx8-|
D-x8x8xx8x8x8xx8x10x10xx10x8x8xx8-|
A---------------------------------|
E---------------------------------|x3

e-------------------------8-8-8-8--|
B-x8x8xx8x666666x10101010x10101010-|
G-x8x8xx8x777777x10101010x10101010-|
D-x8x8xx8x888888x10101010x10101010-|
A----------------------------------|
E----------------------------------|
RIFF-
e-33x3x3xx33x3x3-33x3x3xx33x3x3-|
B-33x3x3xx33x3x3-33x3x3xx33x3x3-|
G-33x3x3xx33x3x3-33x3x3xx33x3x3-|
D-------------------------------|
A-------------------------------|
E-------------------------------|
Do it as much as times necessary.Then:
e-/1515x15x15xx1515x15x15-1515x15x15xx1515x15x15-|
B-/1515x15x15xx1515x15x15-1515x15x15xx1515x15x15-|
G-/1515x15x15xx1515x15x15-1515x15x15xx1515x15x15-|
D------------------------------------------------|
A------------------------------------------------|
E------------------------------------------------|
Do it as much as times necessary.
SOLO-
e-----------------------------13^15---------------------|
B------------11-13-13^15-13p11-----13^15-13-13-13p11^13-|
G-10^12-10/12-------------------------------------------|
D-------------------------------------------------------|
A-------------------------------------------------------|
E-------------------------------------------------------|

CHORUS-
e---------------------------------|
B-x8x8xx8x6x6xx6x10x10xx10x8x8xx8-|
G-x8x8xx8x7x7xx7x10x10xx10x8x8xx8-|
D-x8x8xx8x8x8xx8x10x10xx10x8x8xx8-|
A---------------------------------|
E---------------------------------|x3

e-------------------------8-8-8-8--|
B-x8x8xx8x666666x10101010x10101010-|
G-x8x8xx8x777777x10101010x10101010-|
D-x8x8xx8x888888x10101010x10101010-|
A----------------------------------|
E----------------------------------|
BREAK-
e-------------------------------------------------|
B-------------------------------------------------|
G-------------------------------------------------|
D-10^12^10-8-10-8-7------10^12^10-8-10-8-7------8-|
A-------------------8/10-------------------8/10---|
E-------------------------------------------------|
Do this as much times needed.Then on the last one:
e--------------------------|
B--------------------------|
G--------------------------|
D-10^12^10-8-10-8-7--------|
A-------------------8/10-8-|
E--------------------------|
RIFF-
e-33x3x3xx33x3x3-33x3x3xx33x3x3-|
B-33x3x3xx33x3x3-33x3x3xx33x3x3-|
G-33x3x3xx33x3x3-33x3x3xx33x3x3-|
D-------------------------------|
A-------------------------------|
E-------------------------------|
Do it as much as times necessary.Then:
e-/1515x15x15xx1515x15x15-1515x15x15xx1515x15x15-|
B-/1515x15x15xx1515x15x15-1515x15x15xx1515x15x15-|
G-/1515x15x15xx1515x15x15-1515x15x15xx1515x15x15-|
D------------------------------------------------|
A------------------------------------------------|
E------------------------------------------------|
Do it as much as times necessary.
Then at the same time as the 15's are being played:
e---------------------------------------------13-15------------|
B---------------------------13^15-11-----13^15------13^15p11---|
G-10h12p10h12p10h12p10h12p10--------12----------------------12-|
D--------------------------------------------------------------|
A--------------------------------------------------------------|
E--------------------------------------------------------------|
CHORUS-
e---------------------------------|
B-x8x8xx8x6x6xx6x10x10xx10x8x8xx8-|
G-x8x8xx8x7x7xx7x10x10xx10x8x8xx8-|
D-x8x8xx8x8x8xx8x10x10xx10x8x8xx8-|
A---------------------------------|
E---------------------------------|x3

e-------------------------8-8-8-8--|
B-x8x8xx8x666666x10101010x10101010-|
G-x8x8xx8x777777x10101010x10101010-|
D-x8x8xx8x888888x10101010x10101010-|
A----------------------------------|
E----------------------------------|
BREAK-
e-------------------------------------------------|
B-------------------------------------------------|
G-------------------------------------------------|
D-10^12^10-8-10-8-7------10^12^10-8-10-8-7------8-|
A-------------------8/10-------------------8/10---|
E-------------------------------------------------|
Do this as much times needed.
e----------------------------------------------------------|
B-13^15^13-11-13-11-10-------13^15^13-11-13-11-10-------11-|
G----------------------10/12----------------------10/12----|
D----------------------------------------------------------|
A----------------------------------------------------------|
E----------------------------------------------------------|
Do this as much times needed.
While John Frusciante plays that,he also plays:
SOLO-
e--------------------------------------------------------------------------|
B-----------------------------13^15-10---------13^15-10------------11h13p11|
G-10^12^10p7-10^12^10p7-10^12----------10-12-10--------12-10-12-12---------|
D--------------------------------------------------------------------------|
A--------------------------------------------------------------------------|
E--------------------------------------------------------------------------|

e-------------------------------------------------------------------|
B-------------------------------------------------------------------|
G-12p10-12--12p10---------------------------------------------------|
D-----------------12-10^12-8-10-8-10p8----8^10----------------------|
A--------------------------------------10------10p8-10-10p8---8h10--|
E-----------------------------------------------------------10------|

e-------------------------------------------------|
B-------------------------------------------------|
G-------------------------------------------------|
D-10^12^10-8-10-8-7------10^12^10-8-10-8-7------8-|
A-------------------8/10-------------------8/10---|
E-------------------------------------------------|
Do this as much times needed.Then on the last one:
e-------------------------------|
B-------------------------------|
G-------------------------------|
D-10^12^10-8-10-8-7-------------|
A-------------------8/10-8-8/10~|
E-------------------------------|





Comments


Popular Red Hot Chili Peppers tabs & chords
Fortune Faded Bass Tabs
Fortune Faded 3 Bass Tabs
Freaky Styley 1 Bass Tabs
Funky Crime 1 Bass Tabs
Mommy Where's Daddy 1 Bass Tabs
Havana Affair Chords
By The Way Easy Version Tabs
Californication 14 Tabs
Higher Ground 3 Tabs
My Lovely Man 1 Tabs


Song lyrics



↑ Back to top | Tablatures and chords are parodies/interpretations of the original songs. You may use it for private study, scholarship, research or language learning purposes only
© 2014 AZChords.com Contact us | Privacy policy | DMCA | Add/correct tabs | Request tabs | Top 50 tabs