» » »

Catholic School Girls Rule Tabs (ver.1)

Artists:  A B C D E F G H I J K L M N O P Q R S T U V W X Y Z # 

Catholic School Girls Rule Tabs (ver.1)

Red Hot Chili Peppers
Rating:
0/5 (0 votes)

Hard to play? Try these video lessons and learn fast.
                #

Red Hot Chili Peppers
Freaky Styley

Intro/Chorus

This is a very fast paced song, but I did my best toget the timing. 
I put all the parts in, and you can just place them as needed. 
I am sure this is about as exactly right as it gets. 
Any more requests you have for old-school RHCP tabs can be emailed 
to me and ill do my best.

1| --------------------------------------------------------------------------------------------
2| --------------------------------------------------------------------------------------------
3| --------------------------------------------------------5---2--------------------------
4| -------5----7-7----------5----7-7--------5----7-7-------5---2--------5--7-------------
5| -------5----7-7----------5----7-7--------5----7-7-------3---0--------5--7-------------
6| -------3----5-5----------3----5-5--------3----5-5---------------------3--5-------------

In between the chords the noises in the background are pick 
scr*pes with an effect, you might want to try an auto-wah.


Verse

1| -------------------------------------------------------------------------------------------
2| -------------------------------------------------------------------------------------------
3| -------------------------------------------------------------------------------------------
4| -------------------------------------------------------------------------------------------
5| -------------------3-----------------------------------------------------------------------
6| ---5------7-------------7-------5-5------7-----------------------------------------------

This part is kind of fast. As with all the early chili peppers 
songs, there is a lot of bass, so you should play this with the CD 
or a bass player for maximum effect.






Interlude Thing




1| -------------------------------------------------------------------------------------------
2| -------------------------------------------------------------------------------------------
3| -----------------------------3--3-----------------------5--5----------------------------
4| --------7-----5--------------3--3------7------5---------5--5-----------------------------
5| -------------------7---------------------------------7-------------------------------------
6| --------------------------------------------------------------------------------------------


1| -------------------------------------------------------------------------------------------
2| -------------------------------------------------------------------------------------------
3| --------------------------------5--5------------5--5--------5--5---------5--5---------
4| --------7------5----------------5--5------------5--5--------5--5---------5--5---------
5| --------------------7-----------------------7-------------7-------------7----------------
6| -------------------------------------------------------------------------------------------

1| -------------------------------------------------------------------------------------------
2| -------------------------------------------------------------------------------------------
3| ---9---9-9----9---9-9----9-9-9---9-9-9---9-9-9---9-9-9----------------------------
4| ---9---9-9----9---9-9----9-9-9---9-9-9---9-9-9---9-9-9----------------------------       
5| ---7---7-7----7---7-7----7-7-7---7-7-7---7-7-7---7-7-7----------------------------
6| -------------------------------------------------------------------------------------------

Back to the chorus.


Questions or comments?
            
Hard to play? Try these video lessons and learn fast. | Correct




comments powered by Disqus
↑ Back to top | Tablatures and chords are parodies/interpretations of the original songs. You may use it for private study, scholarship, research or language learning purposes only