» » »

Red Hot Chili Peppers, Californication Bass tabs (ver.2)

Artists:  A B C D E F G H I J K L M N O P Q R S T U V W X Y Z # 

Californication Bass tabs (ver.2)

Red Hot Chili Peppers Tabs
 Rating:
4/5 (4 votes)
Californication  lessons Tabs too difficult? Try these video lessons and learn fast
                (Intro1)
G=----9-9-7h9p7-7-7-5
D=7-7----------------
A=-------------------
E=-------------------

G=----7-7-7-5
D=-----------
A=8-8--------
E=-----------

G=----9-9-7h9p7-7-7-5
D=7-7----------------
A=-------------------
E=-------------------

G=----10-10-7
D=----------
A=8-8-------
E=----------
            
Submit corrections

comments powered by Disqus
↑ Back to top | Red Hot Chili Peppers Bass for Californication. Lyrics for acoustic guitar and electric guitar. Tablatures and chords are parodies/interpretations of the original songs. You may use it for private study, scholarship, research or language learning purposes only