» » »

Red Hot Chili Peppers, Californication Bass tabs (ver.8)

Artists:  A B C D E F G H I J K L M N O P Q R S T U V W X Y Z # 

Californication Bass tabs (ver.8)

Red Hot Chili Peppers Tabs
 Rating:
4/5 (4 votes)
Californication lessons Tabs too difficult? Try these video lessons and learn fast
                ----------------------------------------------------------------------------
              Californication jam - Red hot chili peppers
----------------------------------------------------------------------------

this is 90% correct, for any correction contact me 

Tuning:standard

G|-14-------14---------------14-15-17--15-14----14------14-----------------|
D|------14-------14-14-14-15-----------------15----14------14--------------|
A|----------------------------------------------------0-------15\---------3|
E|-----------------------------------------------------------------1-1---1-|

G|-------------------------------------------------------------------------|
D|-------------------------------------------------------------------------|
A|-------------8/10----8-8--7-------------------8h10-8-8--8-7--------------|
E|-1--3--5--8-------10--------10-8--5-5--8--10----------------10-8-5-5---5-|

G|--------------------------------------------------------------14----17-15|
D|------------------------------------------3-5-7-9-10-12-14-15----14------|
A|-5h7--------------0-3---0-0-3-5-7-9-12-15--------------------------------|
E|-----7-5-1-1--1-3-----3--------------------------------------------------|

G|-------------------17-15-17-14---16---17--16-----14--17--16-14---14---16-|
D|-14----15-14-17-15-------------14--14---14--14-14--14---------14---14----|
A|----15-------------------------------------------------------------------|
E|-------------------------------------------------------------------------|

G|---17----14--16--17--16-22-21-19-21-17-19-16-17-14-16-12-14-10-12-9-10---|
D|-14---14---14--14--14----------------------------------------------------|
A|-------------------------------------------------------------------------|
E|-------------------------------------------------------------------------|

G|-14-12----------12----------14-15-17--15-14----14-12---------------------|
D|-------15-14-15----15-14-15-----------------15-------15-14-12-14-15-14-15|
A|-------------------------------------------------------------------------|
E|-------------------------------------------------------------------------|

G|-14-15-17--17-17/21---19--19h21-19-17-19-19h21-19-17-19-19h21-19-17-19---|
D|-------------------------------------------------------------------------|
A|-------------------------------------------------------------------------|
E|-------------------------------------------------------------------------|

G|-14---------14----------------------------------14------14----14---------|
D|---15-14-15---15-14-15--15-14-12-14-15-14-12-------14------14----14-15---|
A|------------------------------------------------------0------------------|
E|-------------------------------------------------------------------------|

G|-14-15-17--15-14----14-15-17-15-14---------------------------------------|
D|-----------------14----------------14-15-14-12-10-9-7-5-3----------------|
A|-------------------------------------------------------------------------|
E|-----------------------------------------------------------1----1--3--5--|

G|-------------------------------------------------------------------------|
D|-------2-3-5---3-2--------------2-3-5--3-2--------------2-3-2------------|
A|-3--5--------------5-3------3-5------------5--3----3--5-------5-3--------|
E|-----------------------5-------------------------5---------------531----1|

G|--------------------------------------14-14141414-16-17-1717-17--14------|
D|------------------3-5/-7--3-----3----------------------------------------|
A|-------3----3--5------------------0--------------------------------------|
E|-3--5----5---------------------------------------------------------------|

G|--------------------------------14-14141414-16-17-1717-17-16-------------|
D|-15-15151515-17-19-1919-19-17--------------------------------------------|
A|-------------------------------------------------------------------------|
E|-------------------------------------------------------------------------|

G|--------------------------------14-14141414-16-17-16-14-16-14-12---------|
D|-15-15151515-17--17b-1717-17-15------------------------------------------|
A|-------------------------------------------------------------------------|
E|-------------------------------------------------------------------------|

G|--------------------19-17-19-17-21---21--21212121-22-21--22----21--19-21-|
D|-15-15151515-17-19-------------------------------------------------------|
A|-------------------------------------------------------------------------|
E|-------------------------------------------------------------------------|

G|-17-19-16-17-14-16-14--14------1414------1414------1414-------1414-------|
D|--------------------------1414------1414------1414------1414-------------|
A|-------------------------------------------------------------------------|
E|-------------------------------------------------------------------------|
                          Repeat as necessary

G|---------1614--14----1614--1416171614----1614--14----1614--1416171614----|
D|-1414-14-----15--1514----15----------1514----15--1514----15----------1514|
A|-------------------------------------------------------------------------|
E|-------------------------------------------------------------------------|
                         Repeat as necessary
           there are some variations but this is the main track
 
G|-------------------------------------------------------------------------|
D|-------------------------------------------------------------------------|
A|-------------------------------------3-----------------------------------|
E|-\3--3-3--3-3---1-1-1-1-3----5--5-5--5-5--5-5-5-5-7--8-10----------------|

G|-------------------------------------------------------------------------|
D|-------------------------------------------------------------------------|
A|-8--8-8--8-8--7-5----------------------------------------3---------------|
E|-------------------8-7--5--55--55--5555-3-1-11-11-1111-3----5-55-55-5555-|

G|-------------------------------------------------------------------------|
D|-------------------------------------------------------------------------|
A|-----------------3----------------------------3-5-3----------------------|
E|-3-1-11-11-1111-3--5-55-55-5555--1-11-11-1111--------5-55-55-5555-3-1--11|

G|------------------------------------------------------14----14-----------|
D|---------------77--55--22--2-5-7--2222-5-7-9-12--7/14----14----14-15\\---|
A|-------3-5-7-5-----------------------------------------------------------|
E|-33-5--------------------------------------------------------------------|

G|---------------------14----14-------14-----------------------------------|
D|------------------14----14----14----15-----------------------------------|
A|-------------------------------------------------------------------------|
E|-1-11-11-1111-3-5/-------------------------------------------------------|



| /  slide up
| \  slide down
| h  hammer-on
| p  pull-off
| ~  vibrato
| +  harmonic
| x  Mute note
| b  Bending
=============================================================================
            
Submit corrections

comments powered by Disqus
↑ Back to top | Red Hot Chili Peppers Bass for Californication. Lyrics for acoustic guitar and electric guitar. Tablatures and chords are parodies/interpretations of the original songs. You may use it for private study, scholarship, research or language learning purposes only