» » »

Brendans Death Song Tabs (ver.6)

Artists:  A B C D E F G H I J K L M N O P Q R S T U V W X Y Z # 

Brendans Death Song Tabs (ver.6)

Red Hot Chili Peppers
Rating:
0/5 (0 votes)

Hard to play? Try these video lessons and learn fast.
                Intro Riff/Verse

e-0h2p0-----------------------------3-33-33-33-3-3-3-3--|
b-------3--1-3-1--0h1p0-------------3-33-33-33-3-3-3-3--|
G------------------------2--0-2-0---0-00-00-00-0-0-0-0--|
D-----------------------------------0-00-00-00-0-0-0-0--|
A-----------------------------------2-22-22-22-2-2-2-2--|
E-----------------------------------3-33-33-33-3-3-3-3--|


Verse Chords

e--2----0-00-0------0-00--1-11-11-11-1-1-1-1--|
b--3----1-11-1---1--0-00--1-11-11-11-1-1-1-1--|
G--2----0-00-0---2--0-00--0-00-00-00-0-0-0-0--|
D--0----2-22-3---2--2-22--0-00-00-00-0-0-0-0--|
A-------3-33-3---0--2-22--2-22-22-22-2-2-2-2--|
E-------------------0-00--3-33-33-33-3-3-3-3--|
   D     C       Am   Em  G


Chorus

e-3-33-3-3-3--0-00-0-0-0--0-00-0-0--0-00-0-0--|
b-3-33-3-3-3--0-00-0-0-0--0-00-0-0--0-00-0-0--|
G-4-44-4-4-4--0-00-0-0-0--0-00-0-0--0-00-0-0--|
D-5-55-5-5-5--2-22-2-2-2--2-22-2-2--2-22-2-2--|
A-5-55-5-5-5--3-33-3-3-3--2-22-2-2--2-22-2-2--|
E-3-33-3-3-3--------------0-00-0-0--0-00-0-0--|

Overlay ontop of chorus

e-------------------------------------------------------|
b-------------------------------------------------------|
G-7/12-12-12-11-11-9-9-7-7-7-9-9-9-7-7-4-4-4-4-4-4-4-4--|
D-------------------------------------------------------|
A-------------------------------------------------------|
E-------------------------------------------------------|
            
Hard to play? Try these video lessons and learn fast. | Correct




comments powered by Disqus
↑ Back to top | Tablatures and chords are parodies/interpretations of the original songs. You may use it for private study, scholarship, research or language learning purposes only