» » »

Brendans Death Song Tabs (ver.3)

Artists:  A B C D E F G H I J K L M N O P Q R S T U V W X Y Z # 

Brendans Death Song Tabs (ver.3)

Red Hot Chili Peppers
Rating:
0/5 (0 votes)

Hard to play? Try these video lessons and learn fast.
                e|-0h2-0-----------------------------(3)---(3)(3)(3)(3)--------------|
B|----------1--3-1---0h1-0-1--0------(3)-0-(3)(3)(3)(3)--------------|
G|-------2--0--------2--------0-2-0--(0)---(0)(0)(0)(0)--------------|
D|-0---------------------------------(0)---(0)(0)(0)(0)--------------|
A|----------3-----3--0---------------(2)---(2)(2)(2)(2)--------------|
E|----------------------------0----0--3-----3--3--3--3-(on and on)--|

Not positive about the inner notes but the melody and bass notes are for sure correct. 
Notes in parentheses he sometimes plays. either he plays the chord or just plays the bass note. 

Chorus Chords:

G                        C                        Em
Like I said you know I'm almost dead you know I'm almost gone

G                                     C                     Em
And when the drummer drums he's gonna play my song to carry me along

G                        C                        Em
Like I said you know I'm almost dead you know I'm almost gone

G                                   C                   Em
And when the boatman comes to ferry me away to where we all belong


Chorus lead:
e|---------------------------------|
B|---------------------------------|
G|-----------------------------7---|
D|-9-9-9--7-5-7-9-9-9--7-5-7-9---9-|
A|---------------------------------|
E|---------------------------------|

Verse (Intro)

Chorus

Bridge

Crash down on and Em chord for the whole time. Josh does some crazy effects with his guitar.

The rest of the song is the chorus chords and soloing.


Wooooo!
            
Hard to play? Try these video lessons and learn fast. | Correct




comments powered by Disqus
↑ Back to top | Tablatures and chords are parodies/interpretations of the original songs. You may use it for private study, scholarship, research or language learning purposes only