>
 >
Behind The Sun

Behind The Sun Guitar Tabs

Red Hot Chili Peppers - Behind The Sun chords, tabs, tablatures, lyrics

Guitar lessons | Add/correct | Request | Top 50 tabs Artists:  A B C D E F G H I J K L M N O P Q R S T U V W X Y Z 0-9

Behind The Sun Guitar Tabs – Red Hot Chili Peppers

CD, Sheet music, Poster

Do you like Behind The Sun? Share with your friends now
Bass TabsBass Tabs v2TabsTabs v2Tabs v3
BEHIND THE SUN
As recorded by Red Hot Chili Peppers
(From the 1987 Album THE UPLIFT MOFO PARTY PLAN)




 Words and Music by Flea, Anthony Keidis, Hillel Slovak, Jack Irons, and Michael Bienhorn

 

Gtr I (E A D G B E) - 'Guitar Clean'
Gtr II (E A D G B E) - 'Sitar'
Gtr III (E A D G B E) - 'Sitar Background'
Gtr IV (E A D G B E) - 'Citar Overdub'


 Intro
  Moderately Slow Rock Q=90
  N.C.        D                 A
 4/4
  Gtrs I, II
|---------||----------------------------------------|
|---------||o---------------------------------------|
|---------||--12s11-9--9----------------9-(9)-9-----|
|---------||---0----0-(0)-0-9-7--9s11---9-(9)-9-----|
|---------||o---------------0-0--0----0-0-(0)-0-9-7-|
|---------||------------------------------------0-0-|
|
| Gtr III
|---------||--12------12--------12--------12--------|
|---------||o---------------------------------------|
|---------||---9-------9---------9---------9--------|
|---------||----------------------------------------|
|---------||o---------------------------------------|
|---------||----------------------------------------|


                                                         1.
  E                  A5               E9
|-----------------------------------|--------7-(7)------|-(7)-----------||
|-----------------------------------|--------7-(7)------|-(7)----------o||
|-----------------------------------|--------7-(7)------|-(7)-----------||
|-----------------------------------|--------6-(6)------|-(6)-----------||
|--9s11-11-9-(9)-9-7------------5h7-|--------7-(7)------|-(7)----------o||
|--0-----0-0-(0)-0-0--9--7--5h7-----|--0-0-0------------|---------------||
|
|-12---------12------12----12-------|-12-----7-(7)------|-(7)-----------||
|-----------------------------------|--------7-(7)------|-(7)----------o||
|--9----------9-------9-----9-------|--9-----7-(7)------|-(7)-----------||
|-----------------------------------|--------6-(6)------|-(6)-----------||
|-----------------------------------|-------------------|--------------o||
|-----------------------------------|-------------------|---------------||
|
| Gtr IV
|-----------------------------------|-------------------|---------------||
|-----------------------------------|-------------------|--------------o||
|-------------------------------7h9-|-------------------|---------------||
|--------------------11--9--7h9-----|-------------------|---------------||
|-----------------------------------|-------------------|-----7-(7)----o||
|-----------------------------------|-------------------|--0------------||


                       Verse
  2.
  E9                    E9                      E6
|-(7)----------------||-----------7-------------9-|
|-(7)----------------||-------7---7-------------9-|
|-(7)----------------||-------7---7-------------9-|
|-(6)----------------||-------6---6-------------7-|
|-(7)----------------||-------7---7---------------|
|--------------------||---0-0---------0-0-0-0-0---|
|
|-(7)----------------||-----7---7-----7---7---7s9-|
|-(7)----------------||-8h9---------9-------------|
|-(7)----------------||---------------------------|
|-(6)----------------||---------------------------|
|--------------------||---------------------------|
|--------------------||---------------------------|
|
|--0-----------------||---------------------------|
|-----0-(0)--(0)-----||---------------------------|
|------------------9-||---------------------------|
|--------------------||---------------------------|
|--------------------||---------------------------|
|--------------------||---------------------------|


  E9                     E6
|-------7--7-7-----------9----|
|-------7--7-7-----------9----|
|-------7--7-7-----------9----|
|-------6--6-6-----------7----|
|-------7--7-7----------------|
|-0-0-0--------0-0-0-0-0------|
|
|-----------------------------|
|-----------------------------|
|--------------------------9--|
|-----------------------------|
|-----------------------------|
|-----------------------------|
|
|-----------------------------|
|-----------------------------|
|-----------------------------|
|-----------------------------|
|-----------------------------|
|-----------------------------|


  E9                      E6  E9
|---------7---------------9-|-------7--7-7------------------|
|-----7---7---------------9-|-------7--7-7------------------|
|-----7---7---------------9-|-------7--7-7-----9h11-11-11-9-|
|-----6---6---------------7-|-------6--6-6-----9-----9--9-9-|
|-----7---7-----------------|-------7--7-7------------------|
|-0-0-----------0-0-0-0-0---|-0-0-0--------0-0--------------|
|
|---7---7---9---------------|-------------------------------|
|-9-----------7h8---8p7-----|-------------------------------|
|-----------------------9---|-----------------------------9-|
|---------------------------|-------------------------------|
|---------------------------|-------------------------------|
|---------------------------|-------------------------------|


                          E6
|-----------7-------------9--|
|-------7---7-------------9--|
|-------7---7-------------9--|
|-------6---6-------------7--|
|-------7---7----------------|
|---0-0---------0-0-0-0-0----|
|
|-----7---7-----7---7---7s9--|
|-8h9---------9--------------|
|----------------------------|
|----------------------------|
|----------------------------|
|----------------------------|


  E9                     E6  E9                     E6
|-------7--7-7-----------9-|----------7-------------9-|
|-------7--7-7-----------9-|------7---7-------------9-|
|-------7--7-7-----------9-|------7---7-------------9-|
|-------6--6-6-----------7-|------6---6-------------7-|
|-------7--7-7-------------|------7---7---------------|
|-0-0-0--------0-0-0-0-0---|--0-0---------0-0-0-0-0---|
|
|--------------------------|-12-9---7-----------------|
|--------------------------|------------8-8---8p7-----|
|--------------------------|----------------------9---|
|--------------------------|--------------------------|
|--------------------------|--------------------------|
|--------------------------|--------------------------|


  E9
|-------7--7-7--------------------||
|-------7--7-7--------------------||
|-------7--7-7-----9h11-11-11-9---||
|-------6--6-6-----9-----9--9-9---||
|-------7--7-7--------------------||
|-0-0-0--------0-0----------------||
|
|---------------------------------||
|---------------------------------||
|---------------------------------||
|---------------------------------||
|---------------------------------||
|---------------------------------||


 Verse InterVerse Continues
  N.C.       E9                      E6
|---------||-----------7-------------9-|
|---------||-------7---7-------------9-|
|---------||-------7---7-------------9-|
|---------||-------6---6-------------7-|
|---------||-------7---7---------------|
|---------||---0-0---------0-0-0-0-0---|
|
|---------||-----7---7-----7---7---7s9-|
|---------||-8h9---------9-------------|
|---------||---------------------------|
|---------||---------------------------|
|---------||---------------------------|
|---------||---------------------------|


  E9                     E6    E9                      E6
|-------7--7-7-----------9---|---------7---------------9-|
|-------7--7-7-----------9---|-----7---7---------------9-|
|-------7--7-7-----------9---|-----7---7---------------9-|
|-------6--6-6-----------7---|-----6---6---------------7-|
|-------7--7-7---------------|-----7---7-----------------|
|-0-0-0--------0-0-0-0-0-----|-0-0-----------0-0-0-0-0---|
|
|----------------------------|---7---7---7---------------|
|----------------------------|-9-----------7h8---8p7-----|
|--------------------------9-|-----------------------9---|
|----------------------------|---------------------------|
|----------------------------|---------------------------|
|----------------------------|---------------------------|


  E9
|-------7--7-7------------------||
|-------7--7-7------------------||
|-------7--7-7-----9h11-11-11-9-||
|-------6--6-6-----9-----9--9-9-||
|-------7--7-7------------------||
|-0-0-0--------0-0--------------||
|
|-------------------------------||
|-------------------------------||
|-------------------------------||
|-------------------------------||
|-------------------------------||
|-------------------------------||


 Chorus
  D                 A
|---------------------------------------|
|---------------------------------------|
|-12s11-9--9----------------9-(9)-9-----|
|--0----0-(0)-0-9-7--9s11---9-(9)-9-----|
|---------------0-0--0----0-0-(0)-0-9-7-|
|-----------------------------------0-0-|
|
|-12------12--------12--------12--------|
|---------------------------------------|
|--9-------9---------9---------9--------|
|---------------------------------------|
|---------------------------------------|
|---------------------------------------|
|
| Gtr IV
|---------------------------------------|
|---------------------------------------|
|---------------------------------------|
|---------------------------------------|
|---------------------------------------|
|---------------------------------------|


  E                  A5               E9
|-----------------------------------|--------7-(7)----|
|-----------------------------------|--------7-(7)----|
|-----------------------------------|--------7-(7)----|
|-----------------------------------|--------6-(6)----|
|--9s11-11-9-(9)-9-7------------5h7-|--------7-(7)----|
|--0-----0-0-(0)-0-0--9--7--5h7-----|--0-0-0----------|
|
|-12---------12------12----12-------|-12-----7-(7)----|
|-----------------------------------|--------7-(7)----|
|--9----------9-------9-----9-------|--9-----7-(7)----|
|-----------------------------------|--------6-(6)----|
|-----------------------------------|-----------------|
|-----------------------------------|-----------------|
|
|-----------------------------------|-----------------|
|-----------------------------------|-----------------|
|-------------------------------7h9-|-----------------|
|--------------------11--9--7h9-----|-----------------|
|-----------------------------------|-----------------|
|-----------------------------------|-----------------|


  E9           D                 A
|-(7)--------|---------------------------------------|
|-(7)--------|---------------------------------------|
|-(7)--------|-12s11-9--9----------------9-(9)-9-----|
|-(6)--------|--0----0-(0)-0-9-7--9s11---9-(9)-9-----|
|-(7)--------|---------------0-0--0----0-0-(0)-0-9-7-|
|------------|-----------------------------------0-0-|
|
|-(7)--------|-12------12--------12--------12--------|
|-(7)--------|---------------------------------------|
|-(7)--------|--9-------9---------9---------9--------|
|-(6)--------|---------------------------------------|
|------------|---------------------------------------|
|------------|---------------------------------------|
|
|------------|---------------------------------------|
|------------|---------------------------------------|
|------------|---------------------------------------|
|------------|---------------------------------------|
|------------|---------------------------------------|
|------------|---------------------------------------|


  E                  A5
|------------------------------------|
|------------------------------------|
|------------------------------------|
|------------------------------------|
|--9s11-11-9-(9)-9-7------------5h7--|
|--0-----0-0-(0)-0-0--9--7--5h7------|
|
|-12---------12------12----12--------|
|------------------------------------|
|--9----------9-------9-----9--------|
|------------------------------------|
|------------------------------------|
|------------------------------------|
|
|------------------------------------|
|------------------------------------|
|-------------------------------7h9--|
|--------------------11--9--7h9------|
|------------------------------------|
|------------------------------------|


  E9                                    D                 A
|--------7-(7)------|-(7)-------------|---------------------------------------|
|--------7-(7)------|-(7)-------------|---------------------------------------|
|--------7-(7)------|-(7)-------------|-12s11-9--9----------------9-(9)-9-----|
|--------6-(6)------|-(6)-------------|--0----0-(0)-0-9-7--9s11---9-(9)-9-----|
|--------7-(7)------|-(7)-------------|---------------0-0--0----0-0-(0)-0-9-7-|
|--0-0-0------------|-----------------|-----------------------------------0-0-|
|
|-12-----7-(7)------|-(7)-------------|-12------12--------12--------12--------|
|--------7-(7)------|-(7)-------------|---------------------------------------|
|--9-----7-(7)------|-(7)-------------|--9-------9---------9---------9--------|
|--------6-(6)------|-(6)-------------|---------------------------------------|
|-------------------|-----------------|---------------------------------------|
|-------------------|-----------------|---------------------------------------|
|
|-------------------|-----------------|---------------------------------------|
|-------------------|-----------------|---------------------------------------|
|-------------------|-----------------|---------------------------------------|
|-------------------|--0h2------------|---------------------------------------|
|-------------------|-----------------|---------------------------------------|
|-------------------|------0-(0)------|---------------------------------------|


  E                  A5
|-----------------------------------|
|-----------------------------------|
|-----------------------------------|
|-----------------------------------|
|--9s11-11-9-(9)-9-7------------5h7-|
|--0-----0-0-(0)-0-0--9--7--5h7-----|
|
|-12---------12------12----12-------|
|-----------------------------------|
|--9----------9-------9-----9-------|
|-----------------------------------|
|-----------------------------------|
|-----------------------------------|
|
|-----------------------------------|
|-----------------------------------|
|-------------------------------7h9-|
|--------------------11--9--7h9-----|
|-----------------------------------|
|-----------------------------------|


  E9
|--------7-(7)------|-(7)--------------------|
|--------7-(7)------|-(7)--------------------|
|--------7-(7)------|-(7)--------------------|
|--------6-(6)------|-(6)--------------------|
|--------7-(7)------|-(7)--------------------|
|--0-0-0------------|------------------------|
|
|-12-----7-(7)------|-(7)--------------------|
|--------7-(7)------|-(7)--------------------|
|--9-----7-(7)------|-(7)--------------------|
|--------6-(6)------|-(6)--------------------|
|-------------------|------------------------|
|-------------------|------------------------|
|
|-------------------|---------0---0----------|
|-------------------|-----3-3---3---3s5-(5)--|
|-------------------|------------------------|
|-------------------|------------------------|
|-------------------|------------------------|
|-------------------|------------------------|


  D                 A
|---------------------------------------|
|---------------------------------------|
|-12s11-9--9----------------9-(9)-9-----|
|--0----0-(0)-0-9-7--9s11---9-(9)-9-----|
|---------------0-0--0----0-0-(0)-0-9-7-|
|-----------------------------------0-0-|
|
|-12------12--------12--------12--------|
|---------------------------------------|
|--9-------9---------9---------9--------|
|---------------------------------------|
|---------------------------------------|
|---------------------------------------|
|
|---------------------------------------|
|---------------------------------------|
|---------------------------------------|
|---------------------------------------|
|---------------------------------------|
|---------------------------------------|


  E                  A5               E9
|-----------------------------------|--------7-(7)----|
|-----------------------------------|--------7-(7)----|
|-----------------------------------|--------7-(7)----|
|-----------------------------------|--------6-(6)----|
|--9s11-11-9-(9)-9-7------------5h7-|--------7-(7)----|
|--0-----0-0-(0)-0-0--9--7--5h7-----|--0-0-0----------|
|
|-12---------12------12----12-------|-12-----7-(7)----|
|-----------------------------------|--------7-(7)----|
|--9----------9-------9-----9-------|--9-----7-(7)----|
|-----------------------------------|--------6-(6)----|
|-----------------------------------|-----------------|
|-----------------------------------|-----------------|
|
|-----------------------------------|-----------------|
|-----------------------------------|-----------------|
|-------------------------------7h9-|-----------------|
|--------------------11--9--7h9-----|-----------------|
|-----------------------------------|-----------------|
|-----------------------------------|-----------------|


                       Verse
  E9                    E9                      E6
|-(7)----------------||-----------7-------------9-|
|-(7)----------------||-------7---7-------------9-|
|-(7)----------------||-------7---7-------------9-|
|-(6)----------------||-------6---6-------------7-|
|-(7)----------------||-------7---7---------------|
|--------------------||---0-0---------0-0-0-0-0---|
|
|-(7)----------------||-----7---7-----7---7---7s9-|
|-(7)----------------||-8h9---------9-------------|
|-(7)----------------||---------------------------|
|-(6)----------------||---------------------------|
|--------------------||---------------------------|
|--------------------||---------------------------|
|
|     TP TP   TP
|-----0-(0)--(0)-----||---------------------------|
|--------------------||---------------------------|
|------------------9-||---------------------------|
|--------------------||---------------------------|
|--------------------||---------------------------|
|--------------------||---------------------------|


  E9                     E6
|-------7--7-7-----------9----|
|-------7--7-7-----------9----|
|-------7--7-7-----------9----|
|-------6--6-6-----------7----|
|-------7--7-7----------------|
|-0-0-0--------0-0-0-0-0------|
|
|-----------------------------|
|-----------------------------|
|--------------------------9--|
|-----------------------------|
|-----------------------------|
|-----------------------------|
|
|-----------------------------|
|-----------------------------|
|-----------------------------|
|-----------------------------|
|-----------------------------|
|-----------------------------|


  E9                      E6  E9
|-----7---7---------------9-|-------7--7-7------------------|
|-----7---7---------------9-|-------7--7-7------------------|
|-----7---7---------------9-|-------7--7-7-----9h11-11-11-9-|
|-----6---6---------------7-|-------6--6-6-----9-----9--9-9-|
|-----7---7-----------------|-------7--7-7------------------|
|-0-0-----------0-0-0-0-0---|-0-0-0--------0-0--------------|
|
|---7---7---9---------------|-------------------------------|
|-9-----------7h8---8p7-----|-------------------------------|
|-----------------------9---|-----------------------------9-|
|---------------------------|-------------------------------|
|---------------------------|-------------------------------|
|---------------------------|-------------------------------|


  E9                      E6
|-----------7-------------9--|
|-------7---7-------------9--|
|-------7---7-------------9--|
|-------6---6-------------7--|
|-------7---7----------------|
|---0-0---------0-0-0-0-0----|
|
|-----7---7-----7---7---7s9--|
|-8h9---------9--------------|
|----------------------------|
|----------------------------|
|----------------------------|
|----------------------------|


  E9                                  E6  E9                      E6
|-----------7-----7-----7-------------9-|----------7--------------9----|
|-----------7-----7-----7-------------9-|------7---7--------------9----|
|-----------7-----7-----7-------------9-|------7---7--------------9----|
|-----------6-----6-----6-------------7-|------6---6--------------7----|
|-----------7-----7-----7---------------|------7---7-------------------|
|--0--0--0-----------------0--0-0-0-0---|--0-0---------0-0-0-0--0------|
|
|---------------------------------|-12-9---7---------------------|
|------------------------------|------------8-8---8-7---------|
|---------------------------------------|-----------------------9------|
|---------------------------------------|------------------------------|
|---------------------------------------|------------------------------|
|---------------------------------------|------------------------------|
|
| Gtr IV
|---------------------------------------|----------------------17------|
|---------------------------------------|---------------------------19-|
|---------------------------------------|------------------------------|
|---------------------------------------|------------------------------|
|---------------------------------------|------------------------------|
|---------------------------------------|------------------------------|


  E9
|---------7-------7--7---------------------||
|---------7-------7--7---------------------||
|---------7-------7--7--------9h11-11-11-9-||
|---------6-------6--6--------9-----9--9-9-||
|---------7-------7--7---------------------||
|--0-0--0---------------0--0---------------||
|
|------------------------------------------||
|------------------------------------------||
|------------------------------------------||
|------------------------------------------||
|------------------------------------------||
|------------------------------------------||
|
|-17-------------------19----19s21s19------||
|------19---(19)-19-17----17-17s19s17------||
|------------------------------------------||
|------------------------------------------||
|------------------------------------------||
|------------------------------------------||


 Verse Interlude
  N.C.
|----------------------------------|
|----------------------------------|
|----------------------------------|
|----------------------------------|
|----------------------------------|
|----------------------------------|
|
|----------------------------------|
|----------------------------------|
|----------------------------------|
|----------------------------------|
|----------------------------------|
|----------------------------------|
|
|------------()-12-7-12-7-|
|----------------------------------|
|----------------------------|
|----------------------------------|
|----------------------------------|
|----------------------------------|


                                      Verse Continues
                                       E9                      E6
|-----------------------------------||-----------7-------------9--|
|-----------------------------------||-------7---7-------------9--|
|-----------------------------------||-------7---7-------------9--|
|-----------------------------------||-------6---6-------------7--|
|-----------------------------------||-------7---7----------------|
|-----------------------------------||---0-0---------0-0-0-0-0----|
|
|-----------------------------------||-----7---7-----7---7---7s9--|
|-----------------------------------||-8h9---------9--------------|
|---------------------------------9-||----------------------------|
|-----------------------------------||----------------------------|
|-----------------------------------||----------------------------|
|-----------------------------------||----------------------------|
|
|----------------()-----||----------------------------|
|-----------------------------------||----------------------------|
|--------------------------||----------------------------|
|-----------------------------------||----------------------------|
|-----------------------------------||----------------------------|
|-----------------------------------||----------------------------|


  E9                                    E6
|---------7-----7------7----------------9---|
|---------7-----7------7----------------9---|
|---------7-----7------7----------------9---|
|---------6-----6------6----------------7---|
|---------7-----7------7--------------------|
|-0-0--0--------------------0---0-0-0-0-----|
|
|-------------------------------------------|
|-------------------------------------------|
|-----------------------------------------9-|
|-------------------------------------------|
|-------------------------------------------|
|-------------------------------------------|
|
|-------------------()-------------|
|-------------------------------------------|
|-------------------------------------|
|-------------------------------------------|
|-------------------------------------------|
|-------------------------------------------|


  E9                      E6  E9
|---------7---------------9-|-------7--7-7--------------------||
|-----7---7---------------9-|-------7--7-7--------------------||
|-----7---7---------------9-|-------7--7-7-----9h11-11-11-9---||
|-----6---6---------------7-|-------6--6-6-----9-----9--9-9---||
|-----7---7-----------------|-------7--7-7--------------------||
|-0-0-----------0-0-0-0-0---|-0-0-0--------0-0----------------||
|
|---7---7---7---------------|---------------------------------||
|-9-----------7h8---8p7-----|---------------------------------||
|-----------------------9---|---------------------------------||
|---------------------------|---------------------------------||
|---------------------------|---------------------------------||
|---------------------------|---------------------------------||
|
|---------------------------|---------------------------------||
|---------------------------|---------------------------------||
|---------------------------|---------------------------------||
|---------------------------|---------------------------------||
|---------------------------|---------------------------------||
|---------------------------|---------------------------------||


 Chorus
  D                 A
|---------------------------------------|
|---------------------------------------|
|-12s11-9--9----------------9-(9)-9-----|
|--0----0-(0)-0-9-7--9s11---9-(9)-9-----|
|---------------0-0--0----0-0-(0)-0-9-7-|
|-----------------------------------0-0-|
|
|-12------12--------12--------12--------|
|---------------------------------------|
|--9-------9---------9---------9--------|
|---------------------------------------|
|---------------------------------------|
|---------------------------------------|
|
|---------------------------------------|
|---------------------------------------|
|---------------------------------------|
|---------------------------------------|
|---------------------------------------|
|---------------------------------------|


  E                  A5               E9
|-----------------------------------|--------7-(7)----|
|-----------------------------------|--------7-(7)----|
|-----------------------------------|--------7-(7)----|
|-----------------------------------|--------6-(6)----|
|--9s11-11-9-(9)-9-7------------5h7-|--------7-(7)----|
|--0-----0-0-(0)-0-0--9--7--5h7-----|--0-0-0----------|
|
|-12---------12------12----12-------|-12-----7-(7)----|
|-----------------------------------|--------7-(7)----|
|--9----------9-------9-----9-------|--9-----7-(7)----|
|-----------------------------------|--------6-(6)----|
|-----------------------------------|-----------------|
|-----------------------------------|-----------------|
|
|-----------------------------------|-----------------|
|-----------------------------------|-----------------|
|-------------------------------7h9-|-----------------|
|--------------------11--9--7h9-----|-----------------|
|-----------------------------------|-----------------|
|-----------------------------------|-----------------|


  E9                  D                 A
|-(7)---------------|---------------------------------------|
|-(7)---------------|---------------------------------------|
|-(7)---------------|-12s11-9--9----------------9-(9)-9-----|
|-(6)---------------|--0----0-(0)-0-9-7--9s11---9-(9)-9-----|
|-(7)---------------|---------------0-0--0----0-0-(0)-0-9-7-|
|-------------------|-----------------------------------0-0-|
|
|-------------------|-12------12--------12--------12--------|
|-------------------|---------------------------------------|
|-------------------|--9-------9---------9---------9--------|
|--2-----0-2--------|---------------------------------------|
|-------------------|---------------------------------------|
|------------0-(0)--|---------------------------------------|
|
|-------------------|---------------------------------------|
|-------------------|---------------------------------------|
|-------------------|---------------------------------------|
|-------------------|---------------------------------------|
|-------------------|---------------------------------------|
|-------------------|---------------------------------------|


  E                  A5
|-----------------------------------|
|-----------------------------------|
|-----------------------------------|
|-----------------------------------|
|--9s11-11-9-(9)-9-7------------5h7-|
|--0-----0-0-(0)-0-0--9--7--5h7-----|
|
|-12---------12------12----12-------|
|-----------------------------------|
|--9----------9-------9-----9-------|
|-----------------------------------|
|-----------------------------------|
|-----------------------------------|
|
|-----------------------------------|
|-----------------------------------|
|-------------------------------7h9-|
|--------------------11--9--7h9-----|
|-----------------------------------|
|-----------------------------------|


  E9                                   D                 A
|--------7-(7)------|-(7)------------|---------------------------------------|
|--------7-(7)------|-(7)------------|---------------------------------------|
|--------7-(7)------|-(7)------------|-12s11-9--9----------------9-(9)-9-----|
|--------6-(6)------|-(6)------------|--0----0-(0)-0-9-7--9s11---9-(9)-9-----|
|--------7-(7)------|-(7)------------|---------------0-0--0----0-0-(0)-0-9-7-|
|--0-0-0------------|----------------|-----------------------------------0-0-|
|
|-12-----7-(7)------|----------------|-12------12--------12--------12--------|
|--------7-(7)------|------------3---|---------------------------------------|
|--9-----7-(7)------|--0-------------|--9-------9---------9---------9--------|
|--------6-(6)------|-----0--0-2-----|---------------------------------------|
|-------------------|----------------|---------------------------------------|
|-------------------|----------------|---------------------------------------|
|
|-------------------|----------------|---------------------------------------|
|-------------------|----------------|---------------------------------------|
|-------------------|----------------|---------------------------------------|
|-------------------|----------------|---------------------------------------|
|-------------------|----------------|---------------------------------------|
|-------------------|----------------|---------------------------------------|


  E                  A5
|--------------------------------------|
|--------------------------------------|
|--------------------------------------|
|--------------------------------------|
|--9s11-11-9-(9)-9-7------------5h7----|
|--0-----0-0-(0)-0-0--9--7--5h7--------|
|
|-12---------12------12----12----------|
|--------------------------------------|
|--9----------9-------9-----9----------|
|--------------------------------------|
|--------------------------------------|
|--------------------------------------|
|
|--------------------------------------|
|--------------------------------------|
|-------------------------------7h9----|
|--------------------11--9--7h9--------|
|--------------------------------------|
|--------------------------------------|


  E9
|--------7-(7)------|-(7)--------------|
|--------7-(7)------|-(7)--------------|
|--------7-(7)------|-(7)--------------|
|--------6-(6)------|-(6)--------------|
|--------7-(7)------|-(7)--------------|
|--0-0-0------------|------------------|
|
|-12-----7-(7)------|--0---------------|
|--------7-(7)------|---------0-(0)----|
|--9-----7-(7)------|------------------|
|--------6-(6)------|-----2-2----------|
|-------------------|------------------|
|-------------------|------------------|


  D                 A
|----------------------------------------|
|----------------------------------------|
|-12s11-9--9----------------9-(9)-9------|
|--0----0-(0)-0-9-7--9s11---9-(9)-9------|
|---------------0-0--0----0-0-(0)-0-9-7--|
|-----------------------------------0-0--|
|
|-12------12--------12--------12---------|
|----------------------------------------|
|--9-------9---------9---------9---------|
|----------------------------------------|
|----------------------------------------|
|----------------------------------------|


  E                  A5               E9
|-----------------------------------|--------7-(7)------|-(7)----||
|-----------------------------------|--------7-(7)------|-(7)----||
|-----------------------------------|--------7-(7)------|-(7)----||
|-----------------------------------|--------6-(6)------|-(6)----||
|--9s11-11-9-(9)-9-7------------5h7-|--------7-(7)------|-(7)----||
|--0-----0-0-(0)-0-0--9--7--5h7-----|--0-0-0------------|--------||
|
|-12---------12------12----12-------|-12-----7-(7)------|-(7)----||
|-----------------------------------|--------7-(7)------|-(7)----||
|--9----------9-------9-----9-------|--9-----7-(7)------|-(7)----||
|-----------------------------------|--------6-(6)------|-(6)----||
|-----------------------------------|-------------------|--------||
|-----------------------------------|-------------------|--------||
|
| Gtr IV
|-----------------------------------|-------------------|--------||
|-----------------------------------|-------------------|--------||
|-------------------------------7h9-|-------------------|--------||
|--------------------11--9--7h9-----|-------------------|--------||
|-----------------------------------|-------------------|--------||
|-----------------------------------|-------------------|--------||


   Interlude
    A7      A7sus4  A7      A9
||----------------------------------|
||o-------2-------3-------2---2---0-|
||----0-------0-------0-------------|
||--2---2---2---2---2---2---2---2---|
||o---------------------------------|
||----------------------------------|
|
||--------0-------2-------0---------|
||o---------------------------0-----|
||----0-------0-------0-----------0-|
||--2---2---2---2---2---2---2---2---|
||o---------------------------------|
||----------------------------------|


                                     1.
                A7                    A7sus4
|-------------------3---3-----3-----|----------------------------------|
|-------0-------------------------0-|-------3-(3)-2-3-(3)-2-0-2s3-3-3--|
|---0-------0-----------------------|-0-----2-(2)-2-2-(2)-2------------|
|-2---2---2---2-------2----2----0---|---2------------------------------|
|----------------0------------------|-----0----------------------------|
|-----------------------------------|----------------------------------|
|
|-0-------------(0)-3---3-(3)-3-----|-3-----5-(5)----------------------|
|-----------------------------------|----------------------------------|
|-----------------------------------|----------------------------------|
|-----------------------------------|----------------------------------|
|-----------------------------------|----------------------------------|
|-----------------------------------|----------------------------------|


  A7
|----------------------------------||
|-3s5-5-5-5-5-5-5-5s7-7-7-7-7-0-0-o||
|-0---0-----0---0-------------0-0--||
|-----------------------------0-0--||
|---------------------------------o||
|----------------------------------||
|
|---------------------------0------||
|-3s5-5-5-5-5-5-5-5s7-7-7-7-------o||
|-----------------------------0----||
|----------------------------------||
|---------------------------------o||
|----------------------------------||


 2.
  A7sus4                           A7
|--------------------------------|-------0---0---0-3s5-5-5-5-5-5-5--||
|-------3-(3)-2-3-(3)-2-0--0-0-0-|-3s5-5---5---5--------------------||
|-0-----2-(2)-2-2-(2)-2-0--0-0-0-|----------------------------------||
|---2----------------------------|----------------------------------||
|-----0--------------------------|----------------------------------||
|--------------------------------|----------------------------------||
|
|-5----------------3-------------|-------0---0---0-3s5-5-5-5-5-5-5--||
|--------------------------------|-3s5-5---5---5--------------------||
|--------------------------------|----------------------------------||
|--------------------------------|----------------------------------||
|--------------------------------|----------------------------------||
|--------------------------------|----------------------------------||


 Verse
  E9                      E6  E9                     E6
|-----------7-------------9-|-------7--7-7-----------9---|
|-------7---7-------------9-|-------7--7-7-----------9---|
|-------7---7-------------9-|-------7--7-7-----------9---|
|-------6---6-------------7-|-------6--6-6-----------7---|
|-------7---7---------------|-------7--7-7---------------|
|---0-0---------0-0-0-0-0---|-0-0-0--------0-0-0-0-0-----|
|
|-----7---7-----7---7---7s9-|----------------------------|
|-8h9---------9-------------|----------------------------|
|---------------------------|--------------------------9-|
|---------------------------|----------------------------|
|---------------------------|----------------------------|
|---------------------------|----------------------------|


  E9                      E6
|---------7---------------9-|
|-----7---7---------------9-|
|-----7---7---------------9-|
|-----6---6---------------7-|
|-----7---7-----------------|
|-0-0-----------0-0-0-0-0---|
|
|---7---7---9---------------|
|-9-----------7h8---8p7-----|
|-----------------------9---|
|---------------------------|
|---------------------------|
|---------------------------|
|
| Gtr IV
|---------------------------|
|---------------------------|
|---------------------------|
|---------------------------|
|---------------------------|
|---------------------------|


  E9                                   E9                      E6
|-------7-----7---7------------------|-----------7-------------9-|
|-------7-----7---7------------------|-------7---7-------------9-|
|-------7-----7---7-----9h11-11-11-9-|-------7---7-------------9-|
|-------6-----6---6-----9-----9--9-9-|-------6---6-------------7-|
|-------7-----7---7------------------|-------7---7---------------|
|-0-0-0-------------0-0--------------|---0-0---------0-0-0-0-0---|
|
|------------------------------------|-----7---7-----7---7---7s9-|
|------------------------------------|-8h9---------9-------------|
|----------------------------------9-|---------------------------|
|------------------------------------|---------------------------|
|------------------------------------|---------------------------|
|------------------------------------|---------------------------|
|
|------------------------------------|---------------------------|
|------------------------------------|---------------------------|
|-9-------(9)-9-9-9-9-9-9--9--9--9-9-|---------------------------|
|------------------------------------|---------------------------|
|------------------------------------|---------------------------|
|------------------------------------|---------------------------|


  E9                     E6  E9                     E6
|-------7--7-7-----------9-|----------7-------------9-|
|-------7--7-7-----------9-|------7---7-------------9-|
|-------7--7-7-----------9-|------7---7-------------9-|
|-------6--6-6-----------7-|------6---6-------------7-|
|-------7--7-7-------------|------7---7---------------|
|-0-0-0--------0-0-0-0-0---|--0-0---------0-0-0-0-0---|
|
|--------------------------|-12-9---7-----------------|
|--------------------------|------------8-8---8p7-----|
|--------------------------|----------------------9---|
|--------------------------|--------------------------|
|--------------------------|--------------------------|
|--------------------------|--------------------------|


  E9
|-------7--7-7--------------------||
|-------7--7-7--------------------||
|-------7--7-7-----9h11-11-11-9---||
|-------6--6-6-----9-----9--9-9---||
|-------7--7-7--------------------||
|-0-0-0--------0-0----------------||
|
|---------------------------------||
|---------------------------------||
|---------------------------------||
|---------------------------------||
|---------------------------------||
|---------------------------------||


 Verse Interlude                                 Verse Continues
  N.C.                                            E9                      E6
|---------|------------------------------------||-----------7-------------9-|
|---------|------------------------------------||-------7---7-------------9-|
|---------|------------------------------------||-------7---7-------------9-|
|---------|------------------------------------||-------6---6-------------7-|
|---------|------------------------------------||-------7---7---------------|
|---------|------------------------------------||---0-0---------0-0-0-0-0---|
|
|---------|------------------------------------||-----7---7-----7---7---7s9-|
|---------|------------------------------------||-8h9---------9-------------|
|---------|------------------------------------||---------------------------|
|---------|------------------------------------||---------------------------|
|---------|------------------------------------||---------------------------|
|---------|------------------------------------||---------------------------|
|
| Gtr IV
|---------|-----------------------7------------||---------------------------|
|---------|-3h5-5-5-3-3-2h3p2-0-0----()--||---------------------------|
|---------|------------------------------------||---------------------------|
|---------|------------------------------------||---------------------------|
|---------|------------------------------------||---------------------------|
|---------|------------------------------------||---------------------------|


  E9                     E6    E9                      E6
|-------7--7-7-----------9---|---------7---------------9-|
|-------7--7-7-----------9---|-----7---7---------------9-|
|-------7--7-7-----------9---|-----7---7---------------9-|
|-------6--6-6-----------7---|-----6---6---------------7-|
|-------7--7-7---------------|-----7---7-----------------|
|-0-0-0--------0-0-0-0-0-----|-0-0-----------0-0-0-0-0---|
|
|----------------------------|---7---7---7---------------|
|----------------------------|-9-----------7h8---8p7-----|
|--------------------------9-|-----------------------9---|
|----------------------------|---------------------------|
|----------------------------|---------------------------|
|----------------------------|---------------------------|
|
|----------------------------|---------------------------|
|----------------------------|---------------------------|
|----------------------------|---------------------------|
|----------------------------|---------------------------|
|----------------------------|---------------------------|
|----------------------------|---------------------------|


  E9
|-------7---7---7---------------------||
|-------7---7---7---------------------||
|-------7---7---7-----9h11-11--11-9---||
|-------6---6---6-----9-----9---9-9---||
|-------7---7---7---------------------||
|-0-0-0-----------0-0-----------------||
|
|-------------------------------------||
|-------------------------------------||
|-------------------------------------||
|-------------------------------------||
|-------------------------------------||
|-------------------------------------||
|
|-------------------------------------||
|-5---5-5-5-5-5-5-5-5-5--5-(5)--5-5---||
|-------------------------------------||
|-------------------------------------||
|-------------------------------------||
|-------------------------------------||


 Out-Chorus
  D                 A
|---------------------------------------|
|---------------------------------------|
|-12s11-9--9----------------9-(9)-9-----|
|--0----0-(0)-0-9-7--9s11---9-(9)-9-----|
|---------------0-0--0----0-0-(0)-0-9-7-|
|-----------------------------------0-0-|
|
|-12------12--------12--------12--------|
|---------------------------------------|
|--9-------9---------9---------9--------|
|---------------------------------------|
|---------------------------------------|
|---------------------------------------|
|
|---------------------------------------|
|---------------------------------------|
|---------------------------------------|
|---------------------------------------|
|---------------------------------------|
|---------------------------------------|


  E                  A5               E9
|-----------------------------------|--------7-(7)----------|
|-----------------------------------|--------7-(7)----------|
|-----------------------------------|--------7-(7)----------|
|-----------------------------------|--------6-(6)----------|
|--9s11-11-9-(9)-9-7------------5h7-|--------7-(7)----------|
|--0-----0-0-(0)-0-0--9--7--5h7-----|--0-0-0----------------|
|
|-12---------12------12----12-------|-12-----7-(7)----------|
|-----------------------------------|--------7-(7)----------|
|--9----------9-------9-----9-------|--9-----7-(7)----------|
|-----------------------------------|--------6-(6)----------|
|-----------------------------------|-----------------------|
|-----------------------------------|-----------------------|
|
|-----------------------------------|-----------------------|
|-----------------------------------|-----------------------|
|-------------------------------7h9-|-----------------------|
|--------------------11--9--7h9-----|--------------------2--|
|-----------------------------------|-----------------------|
|-----------------------------------|------------------0----|


  E9              D                 A
|-(7)-----------|---------------------------------------|
|-(7)-----------|---------------------------------------|
|-(7)-----------|-12s11-9--9----------------9-(9)-9-----|
|-(6)-----------|--0----0-(0)-0-9-7--9s11---9-(9)-9-----|
|-(7)-----------|---------------0-0--0----0-0-(0)-0-9-7-|
|---------------|-----------------------------------0-0-|
|
|-(7)-----------|-12------12--------12--------12--------|
|-(7)-----------|---------------------------------------|
|-(7)-----------|--9-------9---------9---------9--------|
|-(6)-----------|---------------------------------------|
|---------------|---------------------------------------|
|---------------|---------------------------------------|
|
|---------------|---------------------------------------|
|---------------|---------------------------------------|
|---------------|---------------------------------------|
|-(2)--2-4-2----|---------------------------------------|
|---------------|---------------------------------------|
|---------------|---------------------------------------|


  E                  A5
|------------------------------------|
|------------------------------------|
|------------------------------------|
|------------------------------------|
|--9s11-11-9-(9)-9-7------------5h7--|
|--0-----0-0-(0)-0-0--9--7--5h7------|
|
|-12---------12------12----12--------|
|------------------------------------|
|--9----------9-------9-----9--------|
|------------------------------------|
|------------------------------------|
|------------------------------------|
|
|------------------------------------|
|------------------------------------|
|-------------------------------7h9--|
|--------------------11--9--7h9------|
|------------------------------------|
|------------------------------------|


  E9
|--------7-(7)-------|-(7)---------------|
|--------7-(7)-------|-(7)---------------|
|--------7-(7)-------|-(7)---------------|
|--------6-(6)-------|-(6)---------------|
|--------7-(7)-------|-(7)---------------|
|--0-0-0-------------|-------------------|
|
|-12-----7-(7)-------|-(7)---------------|
|--------7-(7)-------|-(7)---------------|
|--9-----7-(7)-------|-(7)---------------|
|--------6-(6)-------|-(6)---------------|
|--------------------|-------------------|
|--------------------|-------------------|
|
|--------------------|-------------------|
|------------------5-|--5---3h5----------|
|--------------------|-------------------|
|--------------------|----------2-(2)----|
|--------------------|-------------------|
|--------------------|-------------------|


  D                 A
|---------------------------------------|
|---------------------------------------|
|-12s11-9--9----------------9-(9)-9-----|
|--0----0-(0)-0-9-7--9s11---9-(9)-9-----|
|---------------0-0--0----0-0-(0)-0-9-7-|
|-----------------------------------0-0-|
|
|-12------12--------12--------12--------|
|---------------------------------------|
|--9-------9---------9---------9--------|
|---------------------------------------|
|---------------------------------------|
|---------------------------------------|
|
|---------------------------------------|
|---------------------------------------|
|---------------------------------------|
|---------------------------------------|
|---------------------------------------|
|---------------------------------------|


  E                  A5
|-----------------------------------|
|-----------------------------------|
|-----------------------------------|
|-----------------------------------|
|--9s11-11-9-(9)-9-7------------5h7-|
|--0-----0-0-(0)-0-0--9--7--5h7-----|
|
|-12---------12------12----12-------|
|-----------------------------------|
|--9----------9-------9-----9-------|
|-----------------------------------|
|-----------------------------------|
|-----------------------------------|
|
|-----------------------------------|
|-----------------------------------|
|-------------------------------7h9-|
|--------------------11--9--7h9-----|
|-----------------------------------|
|-----------------------------------|


  E9
|--------7-(7)------|-(7)-------------------------------|
|--------7-(7)------|-(7)-------------------------------|
|--------7-(7)------|-(7)-------------------------------|
|--------6-(6)------|-(6)-------------------------------|
|--------7-(7)------|-(7)-------------------------------|
|--0-0-0------------|-----------------------------------|
|
|-12-----7-(7)------|-(7)-------------------------------|
|--------7-(7)------|-(7)-------------------------------|
|--9-----7-(7)------|-(7)-------------------------------|
|--------6-(6)------|-(6)-------------------------------|
|-------------------|-----------------------------------|
|-------------------|-----------------------------------|
|
|-------------------|----------------------0------------|
|-------------------|--5h7-7-5-7-7-7h10-10---10-10-10---|
|-------------------|---------------------------------0-|
|-------------------|-----------------------------------|
|-------------------|-----------------------------------|
|-------------------|-----------------------------------|


  D                 A
|---------------------------------------|
|---------------------------------------|
|-12s11-9--9----------------9-(9)-9-----|
|--0----0-(0)-0-9-7--9s11---9-(9)-9-----|
|---------------0-0--0----0-0-(0)-0-9-7-|
|-----------------------------------0-0-|
|
|-12------12--------12--------12--------|
|---------------------------------------|
|--9-------9---------9---------9--------|
|---------------------------------------|
|---------------------------------------|
|---------------------------------------|
|
|---------------------------------------|
|---------------------------------------|
|---------------------------------------|
|---------------------------------------|
|---------------------------------------|
|---------------------------------------|


  E                  A5               E9
|-----------------------------------|--------7-(7)------|-(7)----*|
|-----------------------------------|--------7-(7)------|-(7)----*|
|-----------------------------------|--------7-(7)------|-(7)----*|
|-----------------------------------|--------6-(6)------|-(6)----*|
|--9s11-11-9-(9)-9-7------------5h7-|--------7-(7)------|-(7)----*|
|--0-----0-0-(0)-0-0--9--7--5h7-----|--0-0-0------------|--------*|
|
|-12---------12------12----12-------|-12-----7-(7)------|-(7)----*|
|-----------------------------------|--------7-(7)------|-(7)----*|
|--9----------9-------9-----9-------|--9-----7-(7)------|-(7)----*|
|-----------------------------------|--------6-(6)------|-(6)----*|
|-----------------------------------|-------------------|--------*|
|-----------------------------------|------0------------|--------*|
|
|-----------------------------------|-------------------|--------*|
|-----------------------------------|-------------------|--------*|
|-------------------------------7h9-|-------------------|--------*|
|--------------------11--9--7h9-----|-------------------|--------*|
|-----------------------------------|-------------------|--------*|
|-----------------------------------|-------------------|--------*|





Comments


Popular Red Hot Chili Peppers tabs & chords
Arpeggiating Bass Tabs
Breaking The Girl 3 Bass Tabs
Fight Like A Brave 2 Bass Tabs
Fortune Faded 2 Bass Tabs
Subway To Venus 1 Bass Tabs
By The Way Chords
Around The World 2 Tabs
Fortune Faded 6 Tabs
Funky Monks 2 Tabs
River Of Avalon Tabs


Song lyrics



↑ Back to top | Tablatures and chords are parodies/interpretations of the original songs. You may use it for private study, scholarship, research or language learning purposes only
© 2014 AZChords.com Contact us | Privacy policy | DMCA | Add/correct tabs | Request tabs | Top 50 tabs