>
 >
Baby Appeal 2

Baby Appeal 2 Bass Tabs

Red Hot Chili Peppers - Baby Appeal 2 chords, tabs, tablatures, lyrics

Guitar lessons | Add/correct | Request | Top 50 tabs Artists:  A B C D E F G H I J K L M N O P Q R S T U V W X Y Z 0-9

Baby Appeal 2 Bass Tabs – Red Hot Chili Peppers

CD, Sheet music, Poster

Do you like Baby Appeal 2? Share with your friends now
Bass TabsBass Tabs v2TabsTabs v2
-------------------------------------------------------------------------------
			Baby Appeal - Red Hot Chili Peppers
-------------------------------------------------------------------------------



Tuning: Standard

Verse 1:
G|-------------------|------------------------------------|------------------|
D|-------------------|------------------------------------|------------------|
A|--9-9-9-7-9----7-9-|-9-9-9-7-9----7-9-------------------|-3-5-5-3-5----3-5-|
E|------------5h7----|-----------5h7----2-2-0-2-0-2-2-0-2-|-----------3h5----|

G|-------------------------------------|------------------|
D|-------------------------------------|------------------|
A|--9-9-9-7-9----7-9-------------------|-9-9-9-7-9----7-9-|
E|------------5h7----2-2-0-2-0-2-2-0-2-|-----------5h7----|

G|------------------------------------|
D|------------------------------------|
A|--9-9-9-7-9----7-9------------------|
E|------------5h7---2-2-0-2-0-2-2-0-2-|

Chorus:
G|-----------------------|---------9------------------|
D|----------5------------|----------7b----------------|
A|---4-5--7-----4-5------|----4-5-x------4-5----------|
E|-0~---------0----0-3-5-|-0~----------0----0-3-3-5-5-|
   T T T  T T T T TT T T   T  T T TPT  T T TT T T T T

G|-----------------------|---------9------------------|
D|----------5------------|----------7b----------------|
A|---4-5--7-----4-5------|----4-5-x------4-5----------|
E|-0~---------0----0-3-5-|-0~----------0----0-3-3-5-5-|
   T T T  T T T T TT T T   T  T T TPT  T T TT T T T T

Verse 2:
G|-------------------|------------------------------------|
D|-------------------|------------------------------------|
A|--9-9-9-7-9----7-9-|-9-9-9-7-9----7-9-------------------|
E|------------5h7----|-----------5h7----2-2-0-2-0-2-2-0-2-|

G|-------------------|------------------------------------|
D|-------------------|------------------------------------|
A|--9-9-9-7-9----7-9-|-9-9-9-7-9----7-9-------------------|
E|------------5h7----|-----------5h7----2-2-0-2-0-2-2-0-2-|

G|-------------------|------------------------------------|
D|-------------------|------------------------------------|
A|--9-9-9-7-9----7-9-|-9-9-9-7-9----7-9-------------------|
E|------------5h7----|-----------5h7----2-2-0-2-0-2-2-0-2-|

G|-------------------|------------------------------------|
D|-------------------|------------------------------------|
A|--9-9-9-7-9----7-9-|-9-9-9-7-9----7-9-------------------|
E|------------5h7----|-----------5h7----2-2-0-2-0-2-2-0-2-|

Chorus:
G|-----------------------|---------9------------------|
D|----------5------------|----------7b----------------|
A|---4-5--7-----4-5------|----4-5-x------4-5----------|
E|-0~---------0----0-3-5-|-0~----------0----0-3-3-5-5-|
   T T T  T T T T TT T T   T  T T TPT  T T TT T T T T

G|-----------------------|---------9------------------|
D|----------5------------|----------7b----------------|
A|---4-5--7-----4-5------|----4-5-x------4-5----------|
E|-0~---------0----0-3-5-|-0~----------0----0-3-3-5-5-|
   T T T  T T T T TT T T   T  T T TPT  T T TT T T T T

Guitar Solo:
G|-----------|-----------|-----------|-----------|-----------|-----------|---------------|
D|-----------|-----------|-----------|-----------|-----------|-----------|---------------|
A|-----------|-----------|-----------|-----------|-----------|-----------|---------------|
E|-0-0-x-0-0-|-0-0-x-0-0-|-0-0-x-0-0-|-0-0-x-0-0-|-0-0-x-0-0-|-0-0-x-0-0-|-0-0-x-0-0-2~\-|
   T T T T T   T T T T T   T T T T T   T T T T T   T T T T T   T T T T T   T T T T T T

Interlude
G|------------------|
D|------------------|
A|------------------|
E|-2--x2--2--x2--2\-|
   T  TT  T  TT  T

Verse 3:
G|-------------------|------------------------------------|------------------|
D|-------------------|------------------------------------|------------------|
A|--9-9-9-7-9----7-9-|-9-9-9-7-9----7-9-------------------|-3-5-5-3-5----3-5-|
E|------------5h7----|-----------5h7----2-2-0-2-0-2-2-0-2-|-----------3h5----|

G|-------------------------------------|------------------|
D|-------------------------------------|------------------|
A|--9-9-9-7-9----7-9-------------------|-9-9-9-7-9----7-9-|
E|------------5h7----2-2-0-2-0-2-2-0-2-|-----------5h7----|

G|------------------------------------|
D|------------------------------------|
A|--9-9-9-7-9----7-9------------------|
E|------------5h7---2-2-0-2-0-2-2-0-2-|

Chorus:
G|-----------------------|---------9------------------|
D|----------5------------|----------7b----------------|
A|---4-5--7-----4-5------|----4-5-x------4-5----------|
E|-0~---------0----0-3-5-|-0~----------0----0-3-3-5-5-|
   T T T  T T T T TT T T   T  T T TPT  T T TT T T T T

G|-----------------------|---------9------------------|
D|----------5------------|----------7b----------------|
A|---4-5--7-----4-5------|----4-5-x------4-5----------|
E|-0~---------0----0-3-5-|-0~----------0----0-3-3-5-5-|
   T T T  T T T T TT T T   T  T T TPT  T T TT T T T T

Outro:
G|------------------------|
D|------------------------|
A|---7-5-4-5-4------------|
E|-0----------3~-0-0--0-0-|
   T T T T T TT  T T  T T



| /  slide up
| \  slide down
| h  hammer-on
| p  pull-off
| ~  vibrato
| +  harmonic
| x  Mute note
| b  Bend
===============================================================================





Comments


Popular Red Hot Chili Peppers tabs & chords
Body Of Water Bass Tabs
Give It Away 2 Bass Tabs
Higher Ground 2 Bass Tabs
Shallow Be Thy Game 2 Bass Tabs
A Certain Someone Chords
I Could Have Lied Chords
Fortune Faded 5 Tabs
Intro To Slane Tabs
Magic Johnson Tabs
My Lovely Man Tabs


Song lyrics



↑ Back to top | Tablatures and chords are parodies/interpretations of the original songs. You may use it for private study, scholarship, research or language learning purposes only
© 2014 AZChords.com Contact us | Privacy policy | DMCA | Add/correct tabs | Request tabs | Top 50 tabs