» » »

Red Hot Chili Peppers, Around The World Tabs (ver.3)

Artists:  A B C D E F G H I J K L M N O P Q R S T U V W X Y Z # 

Around The World Tabs (ver.3)

Red Hot Chili Peppers Tabs
 Rating:
4/5 (4 votes)
Around The World lessons Tabs too difficult? Try these video lessons and learn fast
1
                full-------------   full--------------   full--------------   full    full
12-----12-----12-----12-----12-----12-----12-----12-----12-----12-----12----
12-----12-----12-----12-----12-----12-----12-----12-----12-----12-----12----
14-----14-----14-----14-----14-----14-----14-----14-----14-----14-----14----  
PLAY 3 TIMES

-3-5-3-5-3-5--------0-3-5-3-5-----------0-----------------------------------   
PLAY 6 TIMES

----------------------8-----------------------------10-8--------------8-----
-10--10-----8-8-10------10---8/10-10----8--10-10-10-------8/10-10-11----10--

-------------------------------------------8--------------------------10--8-
-----------------8------8---10--10-8-8-10----10-8/10--10-8-10-10-10---------
--10----10----10-----10-----------------------------------------------------

------------------10-8------------------------------------------------------
---8/10-10--8-10-------10----------------0----------------------------------
--------------------------10-10-10------------------------------------------

--10--10--10--------10------------------------------------------------------

PLAY NUMBER 1 5 TIMES AND THEN NUMBER 2 TWO TIMES AND THEN #1 ONE MORE TIME

---------------------------------------------8------------------------------
----------------8-----10/12--10--10--8-10-10---10---------------------------
--10-10--10--10---10--------------------------------------------------------

--------------------10-8----------------8------------------------------------
--8/10-10-8-8-10-10------8/10-----------8-10------------8---8----------------
------------------------------10-11--11-------10-----10--10------------------

---------------------8-------------------------------------------------------
-----10-10--8--10-10---8/10-10-8-10-10-10-8-----10-8-10--10------------------
--------------------------------------------6/8------------------------------

-13--PLAY THIS --------------------------------------------------------------
-15--32 TIMES----------------------------------------------------------------
-14--------------------------------------------------------------------------
-12--------------------------------------------------------------------------


THE REST OF THE SONG IS IFFY BUT THERE IS ONLY 14 MEASURES
THAT I DON'T KNOW
            
Submit corrections

comments powered by Disqus
↑ Back to top | Red Hot Chili Peppers Tabs for Around The World. Lyrics for acoustic guitar and electric guitar. 1 Tablatures and chords are parodies/interpretations of the original songs. You may use it for private study, scholarship, research or language learning purposes only