» » »

Apache Rose Peacock Tabs (ver.1)

Artists:  A B C D E F G H I J K L M N O P Q R S T U V W X Y Z # 

Apache Rose Peacock Tabs (ver.1)

Red Hot Chili Peppers
Rating:
0/5 (0 votes)

Hard to play? Try these video lessons and learn fast.
                Red Hot Chili Peppers
Apache Rose Peacock
By Anthony Kiedis, Flea, John Frusciante and Chad Smith
Blood Sugar Sex Magik (1991)

Druguitarman, Enjoy

Notation Legend
---------------
b - Bend
. - Staccato Phrasing (showed above the notes)
x - Fret-Hand Muting (percussive tone)
 - Accent Notes
/ - Shift Slide Up
\ - Shift Slide Down
_
/ - Legato Slide Up (only first note picked)
mf - Mezzo Forte (medium loud)
f - Forte (loud)

Timing
------
q - 1/4 note
q. - doted 1/4 note
e - 1/8 note
e. - doted 1/8 note
s - 1/16 note

Q - 1/4 break
E - 1/8 break
S - 1/16 break
E+Q+H - 1/8 break + 1/4 break + 1/2 break


Time Signature: 4/4

Intro
-----
Moderate Funk  q = 95

Gtr. 1 (clean)
mf

   Rhy. Fig. 1
   N.C.(E9)
                                                  .
   e.  s S e  s s s s s S s_s   e.  s S e  s s e  e  E    e.  s S e  s s s s s S s_s
e|---------x------x-x-----7/9-|---------x---------------|---------x------x-x-----7/9-|
B|---------x------x-x-----7/9-|---------x---------------|---------x------x-x-----7/9-|
G|-7---7---x--7-7-x-x-7---7/9-|-7---7---x--7p0-6--7-----|-7---7---x--7-7-x-x-7---7/9-|
D|----------------------------|-------------------------|----------------------------|
A|----------------------------|-------------------------|----------------------------|
E|----------------------------|-------------------------|----------------------------|

                  End Rhy. Fig. 1
             .        .   .
   e.  s S s e  s  s  e   e  E
e|---------x--------------------|
B|---------x----12-12-10--8-----|
G|-7---7---x-7--12-12-11--9-----|
D|------------------------------|
A|------------------------------|
E|------------------------------|

Verse
-----
Gtr. 1: w/ Rhy. Fig. 1, 2 times

then:

Chorus
------

   Rhy. Fig. 2                                                     End Rhy. Fig. 2
   Dm7                                    A7
                                    .                                        .
   s  s  S s  E  e   s  s  S s  S s e     s  s  s s  S s e   s  s  s  s  S s e
e|-13-13---13----13--13-13---13---x-13--|-15-15-x-15---x-15--15-15-15-15---x-15--|
B|-15-15---15----15--15-15---15---x-15--|-14-14-x-14---x-14--14-14-14-14---x-14--|
G|-17-17---17----17--17-17---17---x-17--|-14-14-x-14---x-14--14-14-14-14---x-14--|
D|--------------------------------------|-14-14-x-14---x-14--14-14-14-14---x-14--|
A|--------------------------------------|----------------------------------------|
E|--------------------------------------|----------------------------------------|

Gtr. 1: w/ Rhy. Fig. 2, 2 times

then:

   Dm7                                    A7                                 Ab7
                                    .                    .                   .
   s  s  S s  E  e   s  s  S s  S s e     s  s  s s  S s e   s  s  s  s  S s e
e|-13-13---13----13--13-13---13---x-13--|-15-15-x-15---x-15--15-15-15-15---x-14--|
B|-15-15---15----15--15-15---15---x-15--|-14-14-x-14---x-14--14-14-14-14---x-13--|
G|-17-17---17----17--17-17---17---x-17--|-14-14-x-14---x-14--14-14-14-14---x-13--|
D|--------------------------------------|-14-14-x-14---x-14--14-14-14-14---x-13--|
A|--------------------------------------|----------------------------------------|
E|--------------------------------------|----------------------------------------|

Bridge
------

   A7                            Ab7    A7
   .                                          .      .   .   .
   e   E  e   E  s  S s s  S s s s    S s  E  e   E  e   e   e   s  s
e|-15-----15-----15---x-15---x-x-14-|---15----15-----15--15--15--15-15-|
B|-14-----14-----14---x-14---x-x-13-|---14----14-----14--14--14--14-14-|
G|-14-----14-----14---x-14---x-x-13-|---14----14-----14--14--14--14-14-|
D|-14-----14-----14---x-14---x-x-13-|---14----14-----14--14--14--14-14-|
A|----------------------------------|----------------------------------|
E|----------------------------------|----------------------------------|

   Rhy. Fig. 3                                          End Rhy. Fig. 3
                                 Ab7  A7
   .                                         .      .   .   .
   e   E  e   E  s  S s s  S s s s    e   E  e   E  e   e   e   s  s
e|-15-----15-----15---x-15---x-x-14-|-15-----15-----15--15--15--15-15-|
B|-14-----14-----14---x-14---x-x-13-|-14-----14-----14--14--14--14-14-|
G|-14-----14-----14---x-14---x-x-13-|-14-----14-----14--14--14--14-14-|
D|-14-----14-----14---x-14---x-x-13-|-14-----14-----14--14--14--14-14-|
A|----------------------------------|---------------------------------|
E|----------------------------------|---------------------------------|

Gtr. 1: w/ Rhy. Fig. 3

then:

                                 Ab7    A7
   .      .                                   .      .   .   .
   e   E  e   E  s  S s s  S s s s    S s  E  e   E  e   e   e   E
e|-15-----15-----15---x-15---x-x-14-|---15----15-----15--15--15-----|
B|-14-----14-----14---x-14---x-x-13-|---14----14-----14--14--14-----|
G|-14-----14-----14---x-14---x-x-13-|---14----14-----14--14--14-----|
D|-14-----14-----14---x-14---x-x-13-|---14----14-----14--14--14-----|
A|----------------------------------|-------------------------------|
E|----------------------------------|-------------------------------|

Chorus
------
Gtr. 1: w/ Fig. 2, 3 1/2 times

then:

   A7
   .
   e   E+Q+H
e|-15-----------------|
B|-14-----------------|
G|-14-----------------|
D|-14-----------------|
A|--------------------|
E|--------------------|

Interlude
---------

        Em         C            D            A        B11#9
        >   >          >                                      >              >
   Q    e.  s Q    e.  s   Q    e.  s S s e  s e.     s s s s q    s s s s s e.
e|------7---7------8---8-|--------------------------|---------0--------------0---|
B|------8---8------8---8-|------7-------------_-----|---------3--------------3---|
G|------9---9------9---9-|------7------------4/6\---|---------2--------------2---|
D|-----------------------|------7------------5/7\---|---------1--------------1---|
A|-----------------------|----------0---0-0---------|-2-2-2-2-2----2-2-2-2-2-2---|
E|-----------------------|--------------------------|----------------------------|

                                     Em         C            D            A
           >              >          >   >          >
   s s s s q    s s s s s e.    Q    e.  s Q    e.  s   Q    e.  s S s e  s e.
e|---------0--------------0---|------7---7------8---8-|--------------------------|
B|---------3--------------3---|------8---8------8---8-|------7-------------_-----|
G|---------2--------------2---|------9---9------9---9-|------7------------4/6\---|
D|---------1--------------1---|-----------------------|------7------------5/7\---|
A|-2-2-2-2-2----2-2-2-2-2-2---|-----------------------|----------0---0-0---------|
E|----------------------------|-----------------------|--------------------------|

   B11#9
           >              >             >     .  .    >
   s s s s q    s s s s s e.    s s s s e.  s e  e  s e.
e|---------0--------------0---|---------0-------------0/---|
B|---------3--------------3---|---------3-------------3/---|
G|---------2--------------2---|---------2-------------2/---|
D|---------1--------------1---|---------1-------------1/---|
A|-2-2-2-2-2----2-2-2-2-2-2---|-2-2-2-2-2---0-2--2--2-2/---|
E|----------------------------|----------------------------|

then play: Verse, Chorus, Bridge, Chorus, Interlude, Bridge & Chorus (without the last bar)

then:

   A7

   e   E+Q+H
e|-15-----------------|
B|-14-----------------|
G|-14-----------------|
D|-14-----------------|
A|--------------------|
E|--------------------|

Outro
-----
w/ dist.
f

   N.C.(E5)

   q.     e.  s e.  s e    q.     q     q    e    q.     e.  s e.  s e
e|-----------------------|----------------------|-----------------------|
B|-----------------------|----------------------|-----------------------|
G|-----------------------|----------------------|-----------------------|
D|-----------------------|----------------------|-----------------------|
A|-------------------_---|----------------------|-------------------_---|
E|-0------0---0-3---5/7--|-0------0----/5----3--|-0------0---0-3---5/7--|

   q.     q    e  s e.    q.     e.  s e.  s e    q.     q     q        e
e|----------------------|-----------------------|--------------------------|
B|----------------------|-----------------------|--------------------------|
G|----------------------|-----------------------|--------------------------|
D|----------------------|-----------------------|--------------------------|
A|----------------------|-------------------_---|--------------------------|
E|-0------0----5--x-3---|-0------0---0-3---5/7--|-0------0----/5b5.5----3--|

   q.     e.  s e.  s e   q.     e  e  e  s e.
e|-----------------------|---------------------------||
B|-----------------------|---------------------------||
G|-----------------------|---------------------------||
D|-----------------------|---------------------------||
A|-------------------_---|---------------------------||
E|-0------0---0-3---5/7--|-0------0--5--5--5-3b3.5---||

hope you enjoy this tab, its all correct
            
Hard to play? Try these video lessons and learn fast. | Correct




comments powered by Disqus
↑ Back to top | Tablatures and chords are parodies/interpretations of the original songs. You may use it for private study, scholarship, research or language learning purposes only