» » »

Ratatat, Lex Bass tabs (ver.1)

Artists:  A B C D E F G H I J K L M N O P Q R S T U V W X Y Z # 

Lex Bass tabs (ver.1)

Ratatat Tabs
Rating:
5/5 (1 vote)
Lex lessons Tabs too difficult? Try these video lessons and learn fast
                Ratatat - Classics
Bass tabs

Each dash is a 1/8 note.

Main (opening) riff [00:09][01:59]
G|--------|--------|--------|--------| ||
D|--------|----7-7-|--7-8---|8-75-5--|.||
A|--------|---8----|--------|----8-5-|.||x4
E|--5-3---|--------|--------|--------| ||

With this variation on the fourth repeat

G|--------|--------|--------|--------|
D|--------|----7-7-|--7-8---|8--7----|
A|--------|---8----|--------|----8-5-|
E|--5-3---|--------|--------|--------|

Loud riff [00:45][02:17]
G|--------|--------|--------|--------|
D|--------|7-5-5-7-|8-7-8---|8-75-5--|
A|5-------|---8----|--------|----8-5-|
E|--5-3---|--------|--------|--------|

Funky Riff [01:03]
Now each dash is a 1/16 note.
  
G|----------------|----------------|----------------|----------------|
D|----------------|----------------|----------------|----------------|
A|----------------|----------------|--5--5--5-7-8---|----------------|
E|----------------|----------------|----------------|--6--6--6---1---|

G|----------------|----------------|----------------|----------------|
D|----------------|----------------|----------------|----------------|
A|5---------------|----------------|--5--5--5-7-8---|----------------|
E|----------------|6---------------|----------------|--6--6--6---1---|

Ending Riff [03:12]
G|----------------|----------------|----------------|----------------|
D|----------------|----------------|----------------|7---7--57-7-----|
A|8---8--58-8---88|5---5---5-5-----|--------------5-|----------------|
E|----------------|-------8------8-|6---6--46-6-----|----------------|

G|----------------|----------------|----------------|----------------|
D|----------------|----------------|----------------|7---7--57-7-----|
A|5---5---5-5---55|8---8--58-8-----|--------------5-|----------------|
E|-------8--------|--------------8-|6---6--46-6-----|----------------|

Hope this helps!
            
Submit corrections

comments powered by Disqus
↑ Back to top | Ratatat Bass for Lex. Lyrics for acoustic guitar and electric guitar. Tablatures and chords are parodies/interpretations of the original songs. You may use it for private study, scholarship, research or language learning purposes only