>
 >
Lex

Lex Guitar Tabs

Ratatat - Lex chords, tabs, tablatures, lyrics

Guitar lessons | Add/correct | Request | Top 50 tabs Artists:  A B C D E F G H I J K L M N O P Q R S T U V W X Y Z 0-9

Lex Guitar Tabs – Ratatat

CD, Sheet music, Poster

Do you like Lex? Share with your friends now
Bass TabsBass Tabs v2Tabs

This is my first tab. This song was kind of hard to tab due to all of the guitar 
but most of it seems correct. I have tried to put timing onto the notes as best as i can, but 
going to have to listen to the song to get the general rhythm and proper harmonization.

s = Slide: Strike first note, slide to second note and strike it
\ = Legato slide: Strike first note and slide to second note
without striking it
~ = Vibrato


All guitars standard tuning EADGBe

Intro

Guitar 1

Repeat x 2

e||----------------------------------------------------------|
B||----------------------------------------------------------|
G||----14s10--10s7~~---10/14--14~~~~15s10--7s3~~---12-14~~~~~|
D||----------------------------------------------------------|
A||----------------------------------------------------------|
E||----------------------------------------------------------|

e||----------------------------------------------------------|
B||----------------------------------------------------------|
G||----14s10--10s7~~---10/14--14~~~~15s10--7s3~~---7-5s2~~~~~|
D||----------------------------------------------------------|
A||----------------------------------------------------------|
E||----------------------------------------------------------|

Guitar 2

Repeat x 2

e||----------------------------------------------------------|
B||----------------------------------------------------------|
G||--------------------------------12s7--7/10-10~~---12-14~~~|
D||----15s12--8s7~~---12/15--15~~~~--------------------------|
A||----------------------------------------------------------|
E||----------------------------------------------------------|

e||----------------------------------------------------------|
B||----------------------------------------------------------|
G||--------------------------------12s7--7\3-3~~---3-2-------|
D||----15s12--8s7~~---12/15--15~~~~---------------------3~~~~|
A||----------------------------------------------------------|
E||----------------------------------------------------------|

Guitar 3

e||------------------------------------------------------|
B||--15------11--10------------10--------8--6--------8/15|
G||------------------------10----------------------------| x4
D||------------------------------------------------------|
A||------------------------------------------------------|
E||------------------------------------------------------|

Intro 2

Guitar 1

e||--22------------------------------22--------------------------------|
B||------17--15----18--17-15-17--18------17--18----15--13--------------|
G||-------------------------------------------------------15-14-15-----| x2
D||----------------------------------------------------------------15~~|
A||--------------------------------------------------------------------|
E||--------------------------------------------------------------------|

Guitar 2

e||--------------------------------------------------------------------|
B||--15------------------------------15--------------------------------|
G||------14--12----14--12-10-12--14------14--15----15--14-12-10-12-----| x2
D||----------------------------------------------------------------12~~|
A||--------------------------------------------------------------------|
E||--------------------------------------------------------------------|

Guitar 3

e||--------------------------------------------------------------------|
B||--------------------------------------------------------------------|
G||--------------------------------------------------------------------| x2
D||--------------/14-------------------------------12\--8--------------|
A||--------------/14-------------------------------12\--8--------------|
E||--------------/11-------------------------------10\--6--------------|

Verse

Guitar 1

Repeat x 6

e||--------------------------------------------------------------|
B||-----------------------------------------------------------10-|
G||----------10-----12----10----12---------10-----12----10-------|
D||--10--12------12----12----12----10--12------12----12----12----|
A||--------------------------------------------------------------|
E||--------------------------------------------------------------|

PM---------------------------------------------------------------|

e||----------10--------------------------------------------------|
B||------10------10-10----8----10----------------10----13----15--|
G||--10----------------10---10--------10--12--10----10----10-----|
D||-------------------------------12-----------------------------|
A||--------------------------------------------------------------|
E||--------------------------------------------------------------|

PM---------------------------------------------------------------|

Guitar 2

Repeat x 6

e||---------------------------------------------|
B||---------------------------------------------|
G||---------------------------------------------|
D||--------7----8---7---8-------7----8---7---10-|
A||--7--8-----8---8---8---7--8-----8---8---8----|
E||---------------------------------------------|

PM----------------------------------------------|

e||----------------------------------------5----|
B||-------------6---5---------6----6---8--------|
G||--------7------7---7----7-----7---7---7------|
D||-----7-----7---------7-----------------------|
A||--8------------------------------------------|
E||---------------------------------------------|

PM----------------------------------------------|

Guitar 3

Repeat x 6

e||--5\------------------5\------------|
B||--6\--------6\--------6\------------|
G||--7\--------7\--------7\------------|
D||------------------------------------|
A||------------------------------------|
E||------------------------------------|

Intro

Guitar 1

e||----------------------------------------------------------|
B||----------------------------------------------------------|
G||---------------------------------15s10--7s3~~---12-14~~~~~|
D||----------------------------------------------------------|
A||----------------------------------------------------------|
E||----------------------------------------------------------|

e||----------------------------------------------------------|
B||----------------------------------------------------------|
G||----14s10--10s7~~---10/14--14~~~~15s10--7s3~~---7-5s2~~~~~|
D||----------------------------------------------------------|
A||----------------------------------------------------------|
E||----------------------------------------------------------|

Guitar 2

e||----------------------------------------------------------|
B||----------------------------------------------------------|
G||--------------------------------12s7--7/10-10~~---12-14~~~|
D||-------------------12/15--15~~~~--------------------------|
A||----------------------------------------------------------|
E||----------------------------------------------------------|

e||----------------------------------------------------------|
B||----------------------------------------------------------|
G||--------------------------------12s7--7\3-3~~---3-2-------|
D||----15s12--8s7~~---12/15--15~~~~---------------------3~~~~|
A||----------------------------------------------------------|
E||----------------------------------------------------------|

Guitar 3

e||------------------------------------------------------|
B||----------------------------10--------8--6--------8/15|
G||------------------------10----------------------------| x2
D||------------------------------------------------------|
A||------------------------------------------------------|
E||------------------------------------------------------|

Intro 2

Guitar 1

e||--22------------------------------22--------------------------------|
B||------17--15----18--17-15-17--18------17--18----15--13--------------|
G||-------------------------------------------------------15-14-15-----|
D||----------------------------------------------------------------15~~|
A||--------------------------------------------------------------------|
E||--------------------------------------------------------------------|

e||--22------------------------------22---------------------------|
B||------17--15----18--17-15-17--18------15s10--7s3~~---7-5s2~~~~~|
G||---------------------------------------------------------------|
D||---------------------------------------------------------------|
A||---------------------------------------------------------------|
E||---------------------------------------------------------------|

Guitar 2

e||--------------------------------------------------------------------|
B||--15------------------------------15--------------------------------|
G||------14--12----14--12-10-12--14------14--15----15--14-12-10-12-----|
D||----------------------------------------------------------------12~~|
A||--------------------------------------------------------------------|
E||--------------------------------------------------------------------|

e||----------------------------------------------------------------|
B||--15------------------------------15----------------------------|
G||------14--12----14--12-10-12--14------12s7--7\3-3~~---3-2-------|
D||-----------------------------------------------------------3~~~~|
A||----------------------------------------------------------------|
E||----------------------------------------------------------------|

Guitar 3

e||--------------------------------------------------------------------|
B||--------------------------------------------------------------------|
G||--------------------------------------------------------------------|
D||--------------/14-------------------------------12\--8--------------|
A||--------------/14-------------------------------12\--8--------------|
E||--------------/11-------------------------------10\--6--------------|

e||----------------------------------------------------------------------|
B||----------------------------------------------------------------------|
G||------------------------------------------------------------------10--|
D||--------------/14-------------------------------12\--8---8--7--3--10--|
A||--------------/14-------------------------------12\--8---8--7--3--8---|
E||--------------/11-------------------------------10\--6---6--5--1------|

This is played just before the outro

Guitar 2

e||----------------------------------------------------------|
B||----------------------------------------------------------|
G||----------------------------------------------------------|
D||-----------------------------x-x-x-x-x-x-x-x-x-x-x-x-/12--|
A||-----------------------------x-x-x-x-x-x-x-x-x-x-x-x-/12--|
E||-----------------------------x-x-x-x-x-x-x-x-x-x-x-x-/10--|


Outro/Epic Part

Guitar 1

Repeat x 3

e||----------------------------------------------------------|
B||----------------------------------------------------------|
G||--------------------------------12s7--7/9-9~~---12-14~~~~~|
D||----15s12--8s7~~---12/15--15~~~~--------------------------|
A||----------------------------------------------------------|
E||----------------------------------------------------------|

e||----------------------------------------------------------|
B||----------------------------------------------------------|
G||--------------------------------12s7--7\2-2~~---3-2-------|
D||----15s12--8s7~~---12/15--15~~~~---------------------3~~~~|
A||----------------------------------------------------------|
E||----------------------------------------------------------|





Comments


Popular Ratatat tabs & chords
Im Really Hot Bass Tabs
Nostrand Intro Bass Tabs
Seventeen Years 2 Bass Tabs
Wildcat Bass Tabs
Cherry 1 Tabs
Five Tabs
Loud Pipes Tabs
Mi Viejo Tabs
Montanita Tabs
Sunblocks Tabs


Song lyrics



↑ Back to top | Tablatures and chords are parodies/interpretations of the original songs. You may use it for private study, scholarship, research or language learning purposes only
© 2014 AZChords.com Contact us | Privacy policy | DMCA | Add/correct tabs | Request tabs | Top 50 tabs