>
 >
Lex 2

Lex 2 Bass Tabs

Ratatat - Lex 2 chords, tabs, tablatures, lyrics

Guitar lessons | Add/correct | Request | Top 50 tabs Artists:  A B C D E F G H I J K L M N O P Q R S T U V W X Y Z 0-9

Lex 2 Bass Tabs – Ratatat

CD, Sheet music, Poster

Do you like Lex 2? Share with your friends now
Bass TabsBass Tabs v2Tabs
Lex
Ratatat - Classics
Bass tabs

Each dash is a 1/8 note.

Main (opening) riff [00:09][01:59]
G|--------|--------|--------|--------| ||
D|--------|----5-7-|--7-8---|8-75-5--|.||
A|--------|---8----|--------|----8-5-|.||x4
E|--5-3---|--------|--------|--------| ||

With this variation on the fourth repeat

G|--------|--------|--------|--------|
D|--------|----5-7-|--7-8---|8-------|
A|--------|---8----|--------|--------|
E|--5-3---|--------|--------|--------|

Loud riff [00:45][02:17]
G|--------|--------|--------|--------|
D|--------|7-5-5-7-|--7-8---|8-75-5--|
A|5-------|---8----|5-------|----8-5-|
E|--5-3---|--------|--------|--------|

Funky Riff [01:03]
Now each dash is a 1/16 note.
  
G|----------------|----------------|----------------|----------------|
D|----------------|----------------|--0--0--0-2-3---|----------------|
A|----------------|----------------|----------------|--1--1--1-------|
E|----------------|----------------|----------------|------------1---|

G|----------------|----------------|----------------|----------------|
D|----------------|----------------|----------------|----------------|
A|5---\-----------|----------------|--0--0--0-2-3---|----------------|
E|----------------|6---\-----------|----------------|--1--1--1---1---|

Ending Riff [03:12]
G|----------------|----------------|----------------|----------------|
D|----------------|----------------|----------------|7---7--57-7----7|
A|8---8--58-8---88|5---5---5-5-----|--------------5-|----------------|
E|----------------|-------8------8-|6---6--46-6-----|----------------|

G|----------------|----------------|----------------|----------------|
D|----------------|----------------|----------------|7---7--57-7----7|
A|5---5---5-5---55|8---8--58-8-----|--------------5-|----------------|
E|-------8--------|--------------8-|6---6--46-6-----|----------------|

Another correction.  Hope this helps!





Comments


Popular Ratatat tabs & chords
Lex Bass Tabs
Loud Pipes Bass Tabs
Loud Pipes 2 Bass Tabs
Nostrand Bass Tabs
Breaking Away Tabs
Cherry Tabs
Party And Bullshit Tabs
Two Tabs
Wildcat 1 Tabs
Wildcat Intro Tabs


Song lyrics



↑ Back to top | Tablatures and chords are parodies/interpretations of the original songs. You may use it for private study, scholarship, research or language learning purposes only
© 2014 AZChords.com Contact us | Privacy policy | DMCA | Add/correct tabs | Request tabs | Top 50 tabs