» » »

Rata Blanca, Mujer Amante Bass tabs (ver.2)

Artists:  A B C D E F G H I J K L M N O P Q R S T U V W X Y Z # 

Mujer Amante Bass tabs (ver.2)

Rata Blanca Tabs
 Rating:
4/5 (4 votes)
Mujer Amante lessons Tabs too difficult? Try these video lessons and learn fast
1
                Introducción:

    G    Em                    Bm
G|-----|-----|------------------------------------|
D|--5--|--2--|------------------------------------|
A|-----|-----|-2-2-2-2--2-2-2-2--2-2-2-2--2-2-2-2-|
E|-----|-----|------------------------------------|

Primer canto:

                   Bm                                   A
G|------------------------------------|------------------------------------|
D|------------------------------------|------------------------------------|
A|-2-2-2-2--2-2-2-2--2-2-2-2--2-2-2-2-|-0-0-0-0--0-0-0-0--0-0-0-0--0-0-0-0-|
E|------------------------------------|------------------------------------|

          Bm                 G                           A
G|------------------|------------------|------------------------------------|
D|------------------|------------------|------------------------------------|
A|-2-2-2-2--2-2-2-2-|------------------|-0-0-0-0--0-0-0-0--0-0-0-0--0-0-0-0-|
E|------------------|-3-3-3-3--3-3-3-3-|------------------------------------|

          G                  Em                          Bm
G|------------------|------------------|------------------------------------|
D|-5-5-5-5--5-5-5-5-|-2-2-2-2--2-2-2-2-|------------------------------------|
A|------------------|------------------|-2-2-2-2--2-2-2-2--2-2-2-2--2-2-2-2-|
E|------------------|------------------|------------------------------------|

          A                  Em                          D
G|------------------|------------------|------------------------------------|
D|------------------|-2-2-2-2--2-2-2-2-|------------------------------------|
A|-0-0-0-0--0-0-0-0-|------------------|-5-5-5-5--5-5-5-5--5-5-5-5--5-5-5-5-|
E|------------------|------------------|------------------------------------|

          G                  Em                          Bm
G|------------------|------------------|------------------------------------|
D|-5-5-5-5--5-5-5-5-|-2-2-2-2--2-2-2-2-|------------------------------------|
A|------------------|------------------|-2-2-2-2--2-2-2-2--2-2-2-2--2-2-2-2-|
E|------------------|------------------|------------------------------------|

          A                  Em                          F#
G|------------------|------------------|------------------------------------|
D|------------------|-2-2-2-2--2-2-2-2-|------------------------------------|
A|-0-0-0-0--0-0-0-0-|------------------|------------------------------------|
E|------------------|------------------|-2-2-2-2--2-2-2-2--2-2-2-2--2-2-2-2-|

Estribillo:

          Bm                 D                  A                  Bm
G|------------------|------------------|------------------|------------------|
D|------------------|------------------|------------------|------------------|
A|-2-2-2-2--2-2-2-2-|-5-5-5-5--5-5-5-5-|-0-0-0-0--0-0-0-0-|-2-2-2-2--2-2-2-2-|
E|------------------|------------------|------------------|------------------|

          Bm                 D                  A                  Bm
G|------------------|------------------|------------------|------------------|
D|------------------|------------------|------------------|------------------|
A|-2-2-2-2--2-2-2-2-|-5-5-5-5--5-5-5-5-|-0-0-0-0--0-0-0-0-|-2-2-2-2--2-2-2-2-|
E|------------------|------------------|------------------|------------------|

          Bm                 D                  A                  Bm
G|------------------|------------------|------------------|------------------|
D|------------------|------------------|------------------|------------------|
A|-2-2-2-2--2-2-2-2-|-5-5-5-5--5-5-5-5-|-0-0-0-0--0-0-0-0-|-2-2-2-2--2-2-2-2-|
E|------------------|------------------|------------------|------------------|

          Bm                 D                  A           Bm     A     G    Em
G|------------------|------------------|------------------|-----|-----|-----|-----|
D|------------------|------------------|------------------|-----|-----|-----|-----|
A|-2-2-2-2--2-2-2-2-|-5-5-5-5--5-5-5-5-|-0-0-0-0--0-0-0-0-|--2--|--0--|-----|-----|
E|------------------|------------------|------------------|-----|-----|--3--|--0--|

Segundo canto: LO MISMO QUE EL PRIMERO
---------------------------------------
Estribillo
---------------------------------------
1er solo de guitarra sobre:

          G                  Em                          Bm
G|------------------|------------------|------------------------------------|
D|-5-5-5-5--5-5-5-5-|-2-2-2-2--2-2-2-2-|------------------------------------|
A|------------------|------------------|-2-2-2-2--2-2-2-2--2-2-2-2--2-2-2-2-|
E|------------------|------------------|------------------------------------|

          A                  Em                          D
G|------------------|------------------|------------------------------------|
D|------------------|-2-2-2-2--2-2-2-2-|------------------------------------|
A|-0-0-0-0--0-0-0-0-|------------------|-5-5-5-5--5-5-5-5--5-5-5-5--5-5-5-5-|
E|------------------|------------------|------------------------------------|

          G                  Em                          Bm
G|------------------|------------------|------------------------------------|
D|-5-5-5-5--5-5-5-5-|-2-2-2-2--2-2-2-2-|------------------------------------|
A|------------------|------------------|-2-2-2-2--2-2-2-2--2-2-2-2--2-2-2-2-|
E|------------------|------------------|------------------------------------|

          A                  Em                          F#
G|------------------|------------------|------------------------------------|
D|------------------|-2-2-2-2--2-2-2-2-|------------------------------------|
A|-0-0-0-0--0-0-0-0-|------------------|------------------------------------|
E|------------------|------------------|-2-2-2-2--2-2-2-2--2-2-2-2--2-2-2-2-|

---------------------------------------
Tercer canto: LO MISMO QUE EL 1er SOLO DE GUITARRA
---------------------------------------
Estribillo
---------------------------------------
2do solo de guitarra: LO MISMO QUE EL 1er SOLO DE GUITARRA
---------------------------------------
3er solo de guitarra sobre:

          Bm                 D                  A                  Bm
G|------------------|------------------|------------------|------------------|
D|------------------|------------------|------------------|------------------|
A|-2-2-2-2--2-2-2-2-|-5-5-5-5--5-5-5-5-|-0-0-0-0--0-0-0-0-|-2-2-2-2--2-2-2-2-|
E|------------------|------------------|------------------|------------------| x4
            
Submit corrections

comments powered by Disqus
↑ Back to top | Rata Blanca Bass for Mujer Amante. Lyrics for acoustic guitar and electric guitar. 1 Tablatures and chords are parodies/interpretations of the original songs. You may use it for private study, scholarship, research or language learning purposes only