>
 >
Mujer Amante 1

Mujer Amante 1 Guitar Tabs

Rata Blanca - Mujer Amante 1 chords, tabs, tablatures, lyrics

Guitar lessons | Add/correct | Request | Top 50 tabs Artists:  A B C D E F G H I J K L M N O P Q R S T U V W X Y Z 0-9

Mujer Amante 1 Guitar Tabs – Rata Blanca

CD, Sheet music, Poster

Do you like Mujer Amante 1? Share with your friends now
Bass TabsBass Tabs v2ChordsChords v2Chords v3TabsTabs v2Tabs v3Tabs v4Tabs v5Tabs v6

MUJER AMANTE
As recorded by Rata Blanca
(From the 1990 Album MAGOS, ESPADAS Y ROSAS)

	

Words by Adrian Barilari Music by Walter Giardino

G5
3 5 5 x x x
	
E5
0 2 2 x x x
	
B5
x 2 4 4 x x
	
A5
5 7 7 x x x

D5
x 5 7 7 x x

Gtr I (E A D G B E) - 'Gtr 1 (clean)'
Gtr II (E A D G B E) - 'Gtr 2 (dist)'
Gtr III (E A D G B E) - 'Gtr 3 ( dist )'

 Intro
  Rock Ballad Q=116
  G5          E5          B5   (D)          (G)
 4/4
  Gtr I
   W           W          W                  W
   |           |          |
   /           /          /

  Gtrs II, III
   W           W          Q.    E  +H        H     +E  E. E.
|-----------|-----------|-----------------|-------------------|
|-----------|-----------|-----------------|-------------------|
|-----------|-^4--------|-----------------|-------------------|
|-^5--------|-^2--------|-----------------|-------------------|
|-^5--------|-^2--------|-----------------|-10----(10)-9--7---|
|-^3--------|-^0--------|-7----10-(10)----|-------------------|


                                     Verse 1
  (Bm)                                Bm
  Gtr II                           Gtr I
  W              +W                   E E E  E  H       E  E E E H
|--------------|-------------------||----------------|----------------|
|--------------|-------------------||-----------3----|-----------3----|
|--------------|-------------------||-----4----------|-------4--------|
|--------------|-------------------||---4---(4)------|-----4---4------|
|-9------------|-(9)---------------||-2--------------|-(2)------------|
|--------------|-------------------||----------------|----------------|
|
| Gtr III
|                 PM-|
| H.      E  E    E  E E E +Q   Q     W                 W
|--------------|-------------------||----------------|----------------|
|--------------|-------------------||----------------|----------------|
|--------------|-------7-9-(9)--7--||----------------|----------------|
|--------------|-------7-9-(9)--7--||----------------|----------------|
|-----------\x-|--7--9-------------||----------------|----------------|
|-----------\x-|--5--7-------------||----------------|----------------|


  A                                Bm               G     D
  Gtr I
   E  E  E E H      E E E E H      E E E  E  H      Q  Q  Q  Q
|-----------------|--------------|----------------|--------------|
|----------3-2----|---------2----|-----------3----|----3-----3---|
|--------2--------|-----2--------|-----4----------|----0--2------|
|-^2-(2)----------|---2---2------|---4---(4)------|-------0------|
|-^0--------------|--------------|-2--------------|--------------|
|-----------------|--------------|----------------|-3------------|


                                  Pre-Chorus 1
  A                                G
  E E E  E  H      E E E E H       E E E  E  H         E E E  E  H
|----------------|---------5----||-----------3-------|-----------3--------|
|-----------2----|-------5------||-----3-------------|-----3--------------|
|-----2----------|-----6--------||---0---(0)---------|---0---(0)----------|
|---2---(2)------|---7----------||-------------------|--------------------|
|-0--------------|-0------------||-------------------|--------------------|
|----------------|--------------||-3-----------------|-3------------------|
|
|                                  Gtr III
|                                  PM----------------------------------|
| W                W               E E E  E  E E E E   E E E  E  E E E E
|----------------|--------------||-------------------|--------------------|
|----------------|--------------||-----------3-------|-----------3--------|
|----------------|--------------||-------------4-----|-------------4------|
|----------------|--------------||-----5---------5---|-----5---------5----|
|----------------|--------------||---5----5--------5-|---5----5--------5--|
|----------------|--------------||-3-----------------|-3------------------|


  Bm                                        A                 Em
  E E E  E  H          Q    E E H           E E E E H         E E E E H
|-----------2-------|-----------2---------|---------5-------|---------3--------|
|-----3-------------|-------3-------------|-----5-----------|-----5------------|
|---4---(4)---------|---------4-----------|-----------------|---4---4----------|
|-------------------|---------------------|---2---2---------|-2----------------|
|-2-----------------|-(2)-----------------|-0---------------|------------------|
|-------------------|---------------------|-----------------|------------------|
|
| PM--------------|                         PM------------------------------|
| E E E  E  E E E E    E  Q   E Q.   +E     E E E E E E E E   E E E E E E E E
|-------------------|---------------------|-----------------|------------------|
|-----------7-------|---------------------|---------5-------|---------8--------|
|-------------7-----|--7--9---7-7----(7)\-|-----------6-----|-----9-----9------|
|-----9---------9---|--7--9---7-7----(7)\-|-----7-------7---|---9---9-----9----|
|---9----9--------9-|---------------------|---7---7-------7-|-7-------------7--|
|-7-----------------|---------------------|-5---------------|------------------|


  D                                   G
  E E E E H         E E E E H         E E Q   H         E E Q   H
|-------3p2-------|-------3p2-------|-3-------3-------|---------3--------|
|-----3-----------|-----3-----------|-----3-----------|-----3------------|
|---2-------------|---2-------------|---0-------------|---0--------------|
|-0---------------|-0---------------|-----------------|------------------|
|-----------------|-----------------|-----------------|------------------|
|-----------------|-----------------|-3---------------|-3----------------|
|
| PM------------------------------------------------------------------|
| E E E E E E E E   E E E E E E E E   E E E E E E E E   E E E E E E E E
|-----------------|-----------------|-----------------|------------------|
|---------7-------|-------7-7-------|---------3-------|---------3--------|
|-----7-------7---|-----7-----7-----|-----------4-----|-----------4------|
|---7---7---7---7-|---7---------7---|-----5-------5---|-----5-------5----|
|-5---------------|-5-------------5-|---5---5-------5-|---5---5-------5--|
|-----------------|-----------------|-3---------------|-3----------------|


  Bm                                  A                 Em
  E e e e H         E e e e H         E E E E H         E E E  E  H
|---------2-------|---------2-------|---------5-------|-----------3--------|
|-----3-----------|-----3-----------|-----2-----------|-----5--------------|
|---4---4---------|---4---4---------|---2---2---------|---4---(4)----------|
|-----------------|-----------------|-----------------|-2------------------|
|-2---------------|-2---------------|-0---------------|--------------------|
|-----------------|-----------------|-----------------|--------------------|
|
| PM--------------------------------------------------------------------|
| E E E E E E E E   E E E E E E E E   E E E E E E E E   E E E  E  E E E E
|-----------------|-----------------|-----------------|--------------------|
|---------7-------|---------7-------|---------5-------|-----------8--------|
|-----------7-----|-----------7-----|-----------6-----|-----9-------9------|
|-----9-------9---|-----9-------9---|-----7-------7---|---9----9------9----|
|---9---9-------9-|---9---9-------9-|---7---7-------7-|-7---------------7--|
|-7---------------|-7---------------|-5---------------|--------------------|


                                 Chorus
  F#        E      F#             Bm           D
  Gtr I
    H.      Q    S E. +H.         Q  Q  H      Q  Q  H
|-----------4--|-4s6--(6)------||------------|-------2----|
|-----------5--|-5s7--(7)------||-------3----|----3-------|
|-----------4--|-4s6--(6)------||----4-------|----2-------|
|-^-4----------|---------------||----4-------|-0----------|
|-^-4----------|---------------||-2----------|------------|
|-^(2)---------|---------------||------------|------------|


  A             Bm                        D
   H     H      H    H       H    Q  Q    Q  +E  E Q  Q
|-------------|-----------|-------2-----|----------2------|
|-------^2----|------3----|----------3--|-------------3---|
|-^2----^2----|-----------|-^4----------|-2--(2)-2--------|
|-^2----------|-4---------|-^4----------|-0--(0)----------|
|-^0----------|-2---------|-^2----------|-----------------|
|-------------|-----------|-------------|-----------------|


  A            Bm                             D
  H    Q  Q     Q.   E E E E E   Q  Q  H      Q  Q  H
|------5-----|-----------------|------------|----3--2----|
|---------5--|-----------------|-------3----|------------|
|------------|-----------------|----4-------|------------|
|-2----------|-----------------|----4-------|-0----------|
|-0----------|-(2)---4-5-4-5-4-|-2----------|------------|
|------------|-----------------|------------|------------|


  A            Bm                        D
  Q  Q  H      Q  Q  H      Q  Q  H      Q  Q  H
|----0-------|------------|------------|----3--2----|
|-------2----|----2--3----|----3-------|------------|
|------------|------------|-------4----|------------|
|------------|-4----------|------------|-0----------|
|-0----------|-2----------|-2----------|------------|
|------------|------------|------------|------------|


  A            Bm   A      G           Em
  Q  Q  H      H    H       W          W
|------------|-----------|-----------|------||
|----3--2----|-----------|-----------|------||
|------------|-4----2----|-----------|------||
|-2----------|-4----2----|-^5--------|-2----||
|-0----------|-2----0----|-^5--------|-2----||
|------------|-----------|-^3--------|-0----||


 Verse 2
  Bm                                  A
  E E E  E  H       E  E E  E  H        Q   E E H       E  E E E H
|----------------|------------------|----------------|----------------|
|-----------3----|-------------3----|-------2-3-2----|-----------2----|
|-----4----------|-------4----------|-^(2)-----------|-------2--------|
|---4---(4)------|-----4---(4)------|-^-2------------|-----2---2------|
|-2--------------|-(2)--------------|-^-0------------|-(0)------------|
|----------------|------------------|----------------|----------------|


  Bm              G      D        A
  Q   E  E H       Q  Q   Q  Q     Q  E E H      Q  Q  H
|---------------|-^3-----^2-----|--------------|------------||
|----------3----|-^3--3--^3--3--|---------2----|----3--2----||
|-4--(4)--------|-^0-----^2-----|-----2--------|-2--2--2----||
|--------4------|--------^0-----|-^2----2------|-2--2-------||
|-2-------------|---------------|-^0-----------|-0----------||
|---------------|---------------|--------------|------------||


 Pre-Chorus 2
  G
  E E E  E  H          E  E E  E  H
|-----------3-------|-------------3-------|
|-----3-------------|-------3-------------|
|---0---(0)---------|-----0---(0)---------|
|-------------------|---------------------|
|-------------------|---------------------|
|-3-----------------|-(3)-----------------|
|
| Gtr III
| PM---------------------------------------
| E E E  E  E E E E    E  E E  E  E E E E
|-------------------|---------------------|
|-----------3-------|-------------3-------|
|-------------4-----|---------------4-----|
|-----5---------5---|-------5---------5---|
|---5----5--------5-|-----5----5--------5-|
|-3-----------------|--3------------------|


  Bm
  E E E E H          E   E  E E H
|---------2-------|-------------2---------|
|-------3---------|---------3-------------|
|-----4-----------|-----(4)---4-----------|
|-4-4-------------|-----------------------|
|-2---------------|-(2)-------------------|
|-----------------|-----------------------|
|
|-----------------------|
| E E E E E E E E    E   E  E E Q  +Q
|-----------------|-----------------------|
|---------7-------|-----------------------|
|-----------7-----|---------7-------------|
|-----9-------9---|---------7-9-9--(9)\---|
|---9---9-------9-|--7---9----9-9--(9)\---|
|-7---------------|--7---7----7-7--(7)\---|


  A                Em                D
   E  E E E H        Q   Q   H       E E E  E  H      E E E E H
|-----------5----|-----------------|----------------|--------------|
|-------5--------|-^-8---7---8-----|-8---8-----7----|-8---8---7----|
|---------6------|-^-9---9--(9)----|-7-----(7)------|-7-----7------|
|-(7)-7----------|-^-9-------------|-7-7------------|-7-7----------|
|--0-------------|-^(7)------------|----------------|--------------|
|----------------|-----------------|----------------|--------------|


  G                                   Bm
  E E E  E  H       E  E E  E  H      E  E  E E H      E  E  E E H
|-----------3----|-------------3----|-----------2----|-----------2----|
|-----3----------|-------3----------|-------3--------|-------3--------|
|---0---(0)------|-----0---(0)------|---(4)---4------|---(4)---4------|
|----------------|------------------|----------------|----------------|
|----------------|------------------|-2--------------|-2--------------|
|-3--------------|-(3)--------------|----------------|----------------|


  A                Em                 F#       E      F#
   E  E E E H       Q    E E  Q  Q    Q  Q  Q  Q    S E. +H.
|-----------5----|------------------|----0--2--4--|-4s6--(6)----||
|-------5--------|------^8---^7-----|----------5--|-5s7--(7)----||
|-----6---6------|------^9---^9--9--|----------4--|-4s6--(6)----||
|-(7)------------|---------9--------|-------------|-------------||
|--0-------------|-(7)--------------|-------------|-------------||
|----------------|------------------|-2-----------|-------------||


 Chorus
  Bm           D                   A               Bm
  Q  Q  H      Q  Q  E  E  E  E    Q.   E a H      Q  Q  Q  Q
|------------|----3--2-----------|---------------|-------------|
|-------3----|----3--------3-----|------3-3p2----|----3--2--0--|
|------------|---------(2)---(2)-|-2-------------|-------------|
|----4-------|-0-----------------|-2-------------|-------------|
|-2----------|-------------------|-0-------------|-2-----------|
|------------|-------------------|---------------|-------------|


  Bm              D            A              Bm
  Q.    E  H      H    Q  Q    Q  Q   H       H    a E E a E E
|---------------|------2-----|--------------|-------------------|
|----------3----|---------3--|-------(2)----|-------------------|
|---------------|------------|--------2-----|-------------------|
|------(4)------|-0----------|-2--2---------|-------------------|
|-2-------------|------------|-0------------|-2----4h5p4-4h5p4--|
|---------------|------------|--------------|-------------------|


  Bm           D                    A             Bm
  Q  Q  H       Q.    E  E  E  Q     H    Q  Q    Q  Q  Q  Q
|------------|-----------3-----2--|-------------|--------------|
|-------3----|-------(3)---(3)----|-------2-----|-------3--2---|
|------------|-^2-----------------|-^2-------2--|----4---------|
|----4-------|-^0-----------------|-^2----------|-4------------|
|-2----------|--------------------|-^0----------|-2------------|
|------------|--------------------|-------------|--------------|


  Bm           D           A                Bm   A
  H     H       W          Q.    E  Q  Q    H    H
|------------|-----------|----------5-----|-----------||
|------^3----|-^3--------|-------------5--|-----------||
|------^4----|-^2--------|------(2)-------|-4----2----||
|------^4----|-^0--------|-2--------------|-4----2----||
|-2----------|-----------|-0--------------|-2----0----||
|------------|-----------|----------------|-----------||


 Guitar Solo 1
  G5                                   E5
  Gtr I
   W                                   W
   |                                   |
   /                                   /

  Gtr III
                                           ~~~~~~~~~~~
   Q       E      E      Q   +E  S S   S S E +Q   +E   E      +Q
|------------------------------------|----------------12b14==(12)--|
|-10b12===10pb12-10pb12-10r=(10)-8s7h|=8p7-------------------------|
|------------------------------------|-----9-(9)--(9)--------------|
|------------------------------------|-----------------------------|
|------------------------------------|-----------------------------|
|------------------------------------|-----------------------------|


  B5
    W
    |
    /

                                ~~~~~~~~
                  |-3--|
   +E    e  S  S  S S  S S  S  +E   +E   E
|-(12)r-12-10h12p10s9h10p9------------------|
|--------------------------12-(12)-(12)-14--|
|-------------------------------------------|
|-------------------------------------------|
|-------------------------------------------|
|-------------------------------------------|


    W
    E.  S  S  S  e  E.     S  +E    E
|----------------------------------------|
|-/15--14h15p14-12-17b19==18-(18)r-17b19-|
|----------------------------------------|
|----------------------------------------|
|----------------------------------------|
|----------------------------------------|


  A5                                  E5
   W                                   W
   |                                   |
   /                                   /

                                       |--3--|  |-3--|
   E.  T  T  E  e  E.    e  S  S  S    q  q  q  Q Q  Q
|-----------------------------------|---------------------|
|-17--15h17p15-14-15b17-15-14h15p14-|-12------------------|
|-----------------------------------|----14-12-11-9-12----|
|-----------------------------------|---------------------|
|-----------------------------------|---------------------|
|-----------------------------------|---------------------|


  D5
   W                             W
   |
   /

                     ~~~
   Q       +E   S S  Q.   E      E  S   S  +S  S  a  E  E.    S  +S  S  E
|----------------------------|-------------------------------15-(15)---17-|
|----------------------------|-/14-----15-(15)---15h17-17b19--------------|
|-11b12===(11)r11p9-11----x\-|-----(0)------------------------------------|
|----------------------------|--------------------------------------------|
|----------------------------|--------------------------------------------|
|----------------------------|--------------------------------------------|


  G5
   W
   |
   /

   Q       +S   +S   E  E  E      +E   +E
|-17b19===(17)r(17)-------17b19==(17)r(17)--|
|-------------------15-15-------------------|
|-------------------------------------------|
|-------------------------------------------|
|-------------------------------------------|
|-------------------------------------------|


   W
   Q      +E   E  E  E     +E   E
|-17b19r=(17)-------17b19-(17)-19-|
|-------------15-15---------------|
|---------------------------------|
|---------------------------------|
|---------------------------------|
|---------------------------------|


  B5
   W                              W
   |
   /

                                       ~~~~
   E. S  +E   E  Q      +E   E    Q   +Q     e.  e  e.
|-21p19-(19)-21-21b22r=(21)-19-|-----------/14--15-17---|
|------------------------------|-19--(19)---------------|
|------------------------------|------------------------|
|------------------------------|------------------------|
|------------------------------|------------------------|
|------------------------------|------------------------|


  A5                           E5
   W                            W
   |                            |
   /                            /

                     ~~~~
   Q      E  E  Q   +Q     a a  E.  E.  E   E. E.  E
|-15b17--15-14-----------|-----15--14-----/19p18--19---|
|--------------17--(17)--|---x---------17--------------|
|------------------------|-x---------------------------|
|------------------------|-----------------------------|
|------------------------|-----------------------------|
|------------------------|-----------------------------|


  (F#)
   W                           W
   E.  E.  E  Q      Q         Q      Q      Q      Q
|-18--19--18-19b21--19b21---|-19b21--19b21--19b21--19b21---||
|---------------------------|------------------------------||
|---------------------------|------------------------------||
|---------------------------|------------------------------||
|---------------------------|------------------------------||
|---------------------------|------------------------------||


 Bridge
  G         A    Bm    A  G    Bm
  Gtr I
   H     Q  Q     H    Q  Q    H.      Q    H     H
|--------3--5--|-/7----5--3--|-2----------|------(2)----|
|--------3--5--|-/7----5--3--|---------2--|-3-----------|
|--------4--6--|-/7----6--4--|------------|-------4-----|
|--------------|-------7--5--|-4----------|-------------|
|--------------|-------------|------------|-------------|
|-(3)----------|-------------|------------|-------------|
|
| Gtr III
|  >
|  ~~~
|  W              W            W            W
|-19-----------|-------------|------------|-------------|
|--------------|-------------|------------|-------------|
|--------------|-------------|------------|-------------|
|--------------|-------------|------------|-------------|
|--------------|-------------|------------|-------------|
|--------------|-------------|------------|-------------|


  A              Em           D
   H     Q  Q    H    Q  Q    W           W
|--------0-----|-0----2--3--|-2--------|-^2----||
|-----------2--|------------|-3--------|-^3----||
|--------------|------------|-2--------|-^2----||
|--------------|------------|-0--------|-^0----||
|-(0)----------|------------|----------|-------||
|--------------|-0----------|----------|-------||


 Pre-Chorus 3
  G                                Bm
  Q.   E +H       Q  E E +Q   Q    H.      q    W
|-3-------------|-3--------------|-2-------0--|------|
|------3-(3)----|------3-(3)-----|-3----------|-3----|
|---------------|-------------0--|-4----------|-4----|
|---------------|----------------|------------|------|
|---------------|----------------|-2----------|-2----|
|-3-------------|----------------|------------|------|


  A              Em             F#
  Q.   Q.   Q    Q.   Q.   Q    W           W
|--------------|-0----2----3--|-2--------|-!2----||
|------3----2--|--------------|----------|-!2----||
|-2------------|--------------|----------|-!3----||
|-2------------|--------------|----------|-!4----||
|-0------------|--------------|----------|-------||
|--------------|-0------------|-2--------|-------||


 Chorus
  Bm         D                  A            Bm
  W          Q.   E  Q    Q     H.      Q    W
|----------|------------------|------------|------|
|----------|------8-(8)---7---|-5----------|------|
|----------|--------(7)--(7)--|---------6--|------|
|----------|--------(7)--(7)--|------------|------|
|-2--------|-5----------------|-0----------|-9----|
|----------|------------------|------------|-7----|


             D                 A                  Bm
                                                           PM|
  W          Q.    Q.    Q      Q.    Q.    Q     H    E E E E
|----------|-----------------|------------------|---------------|
|----------|-7-----5---------|-^2-----0---------|---------------|
|----------|-7-----7-----7---|-^2-----2-----2---|---------------|
|----------|-0----(0)---(0)--|-^2---------------|---------------|
|-9--------|-----------------|-^0----(0)---(0)--|-2----5p4-5-4--|
|-7--------|-----------------|------------------|---------------|


             D                     A                Bm
  W          E  E   E  E +Q   Q     Q.    Q.   Q    W
|----------|---------------------|----------------|------|
|----------|-----------8-(8)--7--|-^5-----7----8--|------|
|-7--------|-7-----(7)--------7--|-^6----(6)------|------|
|----------|-7-(7)---------------|-^7----(7)------|------|
|----------|-5-------------------|-^0----(0)------|-9----|
|-7--------|---------------------|----------------|-7----|


             D                 A                 B5
                                                 Gtr I
  W          W                 W                 W
                                                 |
                                                 /

                                                 Gtr III
  W          H    +E  E +Q     H    +E  E +Q     H      Q   Q
|----------|-----------------|-----------------|----------------||
|----------|-----------------|-----------------|-----------10---||
|----------|----------7-(7)--|-6----(6)--------|------/11-------||
|----------|-7----(7)-7-(7)--|-7----(7)-7-(7)--|----------------||
|-9--------|-5----(5)--------|-0----(0)--------|----------------||
|-7--------|-----------------|-----------------|----------------||


 Guitar Solo 2
  B5                                   D5
  Gtr II
   W                                     W
   |                                     |
   /                                     /

  Gtr III
                                         |--3---|
   Q      Q      Q      Q        a      +Q  q   q Q      +E  +S  S
|-----------------------------|------------------------------------|
|-10b12--10b12--10b12--10b12--|-10pb12r(10)-8---7-8b10===(8)r(8)p7-|
|-----------------------------|------------------------------------|
|-----------------------------|------------------------------------|
|-----------------------------|------------------------------------|
|-----------------------------|------------------------------------|
|
| Gtr I
|  Q      Q      H                       Q    Q   H
|-----------------------------|-------------------2----------------|
|-----------------------------|---------------3--------------------|
|----------------4------------|----------2----2--------------------|
|--4------4-------------------|----------0-------------------------|
|--2--------------------------|------------------------------------|
|-----------------------------|------------------------------------|


  A5
   W
   |
   /

       \0.5/  \0.5/  \1
                              PM   PM    PM
   E. +S     +S     +S     S  S  E S  E  S  E
|---------------------------------------------|
|-------------------------------10---12----14-|
|--9--(9)----(9)----(9)\-/(6)----9------------|
|-----------------------------7----9----11----|
|---------------------------------------------|
|---------------------------------------------|
|
|  Q          Q                  H
|-------------0-------------------------------|
|-------------2------------------2------------|
|--------------------------------2------------|
|-^2------------------------------------------|
|-^0------------------------------------------|
|---------------------------------------------|


  B5
    W                                          W
    |                                          |
    /                                          /

    Q  E  a       E   +E.   a   +S  S S E      Q   E  E  +S   E  S   E  E
|------7----------7---(7)------------------|-----------------------/12-10-|
|-/14----10b12==(10)-(10)-(10)r(10)-----0--|-/12--10---------------/12----|
|-/14-------------------------------9p7-7\-|-/11---9-12-(12)s11\-0--------|
|-/11-------------------------------9p7-x\-|--/9-----------------0--------|
|------------------------------------------|------------------------------|
|------------------------------------------|------------------------------|
|
|   Q  Q               H                       Q   Q      H
|------------------------------------------|------------------------------|
|------3-----------------------------------|-------2------3---------------|
|----------------------4-------------------|------------------------------|
|---4--------------------------------------|---4--------------------------|
|---2--------------------------------------|---2--------------------------|
|------------------------------------------|------------------------------|


  D5
   W
   |
   /

   Q        a   +E   E   E.    E.    S     +S
|-12b14===(12)r(12)p10--12b14-12b14-12b14r(12)p=|
|-----------------------------------------------|
|-----------------------------------------------|
|-----------------------------------------------|
|-----------------------------------------------|
|-----------------------------------------------|
|
|  Q             E   E   H
|----------------3-------2----------------------|
|----------------3-------3----------------------|
|--2----------------(2)-------------------------|
|--0--------------------------------------------|
|-----------------------------------------------|
|-----------------------------------------------|


  A5
   W
   |
   /

           |---3---|                              |-3--| |-3-| |3|
   S  T  T T  T S  S T  T  T  T  T T  T T T T T T S  S S S S S S E
|-10h12p10s9h10p9----9----------------------------7----------------|
|-----------------12---12p10-12p10s8-10p8s7h8p7-8---10-8p7---------|
|----------------------------------------------------------9-7S6h7-|
|------------------------------------------------------------------|
|------------------------------------------------------------------|
|------------------------------------------------------------------|
|
|  H                                      H
|-----------------------------------------0------------------------|
|-----------------------------------------2------------------------|
|------------------------------------------------------------------|
|--2---------------------------------------------------------------|
|--0---------------------------------------------------------------|
|------------------------------------------------------------------|


  B5
  W                                      W
  |                                      |
  /                                      /

                                                     ~~~
  |-3--|  |-3-|
  S  S S  S S S T T S T T S E E a E E    E   E  E E +Q    E E
|-7-----------------------------------|------------------------|
|---10p7------------------------------|------------------------|
|--------10p9p7-7---------------------|--7----------------7----|
|-----------------9p7-----------------|--9---9--7-9-(9)---9-9\-|
|---------------------9p7s5-2s5-------|------9--7-9-(9)---9-9\-|
|-------------------------------7s5s7-|-(7)-(7)-------------7\-|
|
|                                                           PM
| W                                      Q      E E  E  E E E
|-------------------------------------|------------------------|
|-------------------------------------|---------2h3------------|
|-------------------------------------|--------------4----4----|
|-4-----------------------------------|--4--------------4---4--|
|-2-----------------------------------|--2---------------------|
|-------------------------------------|------------------------|


  D5                          A5
   W                           W
   |                           |
   /                           /

           ~~~~~~~
                                                    |--3--| |-3-| |----3----|
   E  E  E E S E. +S   S  E    S S S S S S   +S   S S  S  S S S S S a E S S S
|---------------------------|-------------------------------------------------|
|-10-10---------------------|-------------------------------------------------|
|--7--7--7-9-7-7--(7)S(2)-6-|--7-6-6------------------------------------------|
|--7-(7)--------------------|--------9-7-7b8r(7)----7-------------7-4h5-7-4-5-|
|---------------------------|--------------------10---10-10p9p7-5-------------|
|---------------------------|-------------------------------------------------|
|
|  E  E  Q   Q     Q           Q       Q            Q             Q
|--------3---2--------------|-----------------------5-------------3-----------|
|-----3------------3--------|-^2-------2--------------------------------------|
|--2------------------------|-^2----------------------------------------------|
|--0------------------------|-^2----------------------------------------------|
|---------------------------|-^0----------------------------------------------|
|---------------------------|-------------------------------------------------|


  B5
  W
  |
  /

                    |--3--|  |-3--|                    |-3--|
  T T T T T T  T  T S  S  S  S  S S   S S  E  a  S  S  S  S S
|---------------------------------------9-10-10h12-10h12p10p9h|
|---------------------------10h12p9-/12-----------------------|
|-6h7p6s7h9p7-12p11p9h11h12-----------------------------------|
|-------------------------------------------------------------|
|-------------------------------------------------------------|
|-------------------------------------------------------------|
|
| Q                 Q                 E    E     E     E
|-------------------------------------------------------------|
|-------------------3-----------------2h===3-----2h====3------|
|-------------------------------------------------------------|
|-4-----------------------------------------------------------|
|-2-----------------------------------------------------------|
|-------------------------------------------------------------|


   W
   |
   /

                 ~~~~
   |-3--|
   S S  S  +E   +Q.    E  Q
|-10p9---------------------------|
|------12-(12)-(12)----x-15b17===|
|----------------------x---------|
|--------------------------------|
|--------------------------------|
|--------------------------------|
|
|  E        E    E E H
|--------------------------------|
|----------------2h3-------------|
|----------(4)-------4-----------|
|--4-----------------------------|
|--2-----------------------------|
|--------------------------------|


  D5                                           A5
    W                                            W
    |                                            |
    /                                            /

                           ~~~~~~~~~
   +Q      a      +E   E   Q    +E  S  S        +E    E     E        E    E     +S      +S   E  E
|--------------------------------------------|-------17-------------17----------------------------|
|-(15)r---15pb17r(15)-14--15---(15)-x-17b19==|=(17)-(17)r-[17]b19==(17)r-17b19r(17)b19r(17)-15-14h|
|-----------------------------------x--------|----------------------------------------------------|
|--------------------------------------------|----------------------------------------------------|
|--------------------------------------------|----------------------------------------------------|
|--------------------------------------------|----------------------------------------------------|
|
|   E   E          E   E   E E   Q               Q          Q             Q                  Q
|------------------2-------3-----2-----------|--------------0-------------------------------------|
|-------3------------------------------------|----------------------------2-----------------------|
|---2-----------------(2)----2---------------|-----------------------------------------------2----|
|---0----------------------------------------|----------------------------------------------------|
|--------------------------------------------|---0------------------------------------------------|
|--------------------------------------------|----------------------------------------------------|


  B5
   W
   |
   /

                   ~~~~~~~~~
   |--3---|             |--3--|  |3-|  |--3--|  |--3--|
   S  S   S       +E   +S   S S  E  S  S  S  S  S  S  S      +E   +S   S
|-------------------------------14h15p14h15p14----14------------------14h===|
|-15p14-[17]b19==(17)-(17)r-x------------------17----17b19==(17)r(17)-------|
|---------------------------x-----------------------------------------------|
|---------------------------------------------------------------------------|
|---------------------------------------------------------------------------|
|---------------------------------------------------------------------------|
|
|  Q                    Q              E        E             E    E
|---------------------------------------------------------------------------|
|---------------------------------------------------------------------------|
|----------------------(4)--------------------------------------------------|
|--4------------------------------------------------------------------------|
|--2-----------------------------------5p=======4h============5p===4--------|
|---------------------------------------------------------------------------|


  B5
   W
   |
   /

   |--3--|  |3-|  |---3----|  |--3--|  |--3--|  |--3--|  |--3--|  |--3--|
   S  S  S  E  S  T  T  S  S  S  S  S  S  S  S  S  S  S  S  S  S  S  S  S
|-15p14----14h15p14-17p14-14-17-14----14-15p14----17-14-14-14h15p14----14-|
|-------17-------------------------17----------17-------------------17----|
|-------------------------------------------------------------------------|
|-------------------------------------------------------------------------|
|-------------------------------------------------------------------------|
|-------------------------------------------------------------------------|
|
|  Q              E           E        Q                 Q
|-------------------------------------------------------------------------|
|-----------------2h==========3--------------------------0----------------|
|--------------------------------------4----------------------------------|
|-------------------------------------------------------------------------|
|--2----------------------------------------------------------------------|
|-------------------------------------------------------------------------|


  D5
   W
   |
   /

   |------3------|  |--3--|  |--3--|  |--3--|  |--3--|  |--3--|  |--3---|
   E     E    S  S  S  S  S  S  S  S  S  S  S  S  S  S  S  S  S  S  S   S
|-------14h==15p14----14-------14----------------------------------------------|
|-17b19------------17----15h17----17-15p14-------------------------------------|
|------------------------------------------16p14-16p14s12-14p12s11-12\-[9]b11==|
|------------------------------------------------------------------------------|
|------------------------------------------------------------------------------|
|------------------------------------------------------------------------------|
|
|  E       E        Q                 H
|-------------------3----------------^2----------------------------------------|
|-------------------3----------------^3----------------------------------------|
|----------2-------------------------^2----------------------------------------|
|--0---------------------------------------------------------------------------|
|------------------------------------------------------------------------------|
|------------------------------------------------------------------------------|


  A5
   W
   |
   /

        ~~~
                  |-3-|   |-3-|
  +E    Q   +E    T T T S S S S    +E.  S
|-------------------------------------------|
|-------------------------------------------|
|-(9)r-[9]--(9)\--------6-7-9-7b9==(7)r-7h==|
|---------------------x---------------------|
|-------------------x-----------------------|
|-----------------x-------------------------|
|
|  H              Q                 Q
|----------------^5-----------------3-------|
|----------------^2-------------------------|
|----------------^2-------------------------|
|--2----------------------------------------|
|--0----------------------------------------|
|-------------------------------------------|


  B5
  W
  |
  /

                            ~~~~~~~
  |-3-|     |-3--|  |-3-|      |-3--| |--3--|
  S S S  E  S   +E  S S S E E +E    S S  S  S
|-------------------------------------7-10-------|
|----------------------------------10------10b12-|
|-9p7p6-[7]-7b9r(7)p6h7p6-4-4-(4)/---------------|
|------------------------------------------------|
|------------------------------------------------|
|------------------------------------------------|
|
| Q         Q             Q    Q
|------------------------------------------------|
|-----------3-------------2----0-----------------|
|------------------------------------------------|
|------------------------------------------------|
|-2----------------------------------------------|
|------------------------------------------------|


    W
    |
    /

                  |-3-|                    |-3-|
   +E   S  S     +S   E  a      +S    S   +S   E T  T  S T T T  T  S T T
|--------------------10--------------10--------9p7----10-7h9p7----10-7h9p==|
|-(10)-10-10b12r(10)----10b12==(10)-(10)-(10)r-----10----------10----------|
|--------------------------------------------------------------------------|
|--------------------------------------------------------------------------|
|--------------------------------------------------------------------------|
|--------------------------------------------------------------------------|
|
|   Q             Q                        Q             Q
|--------------------------------------------------------------------------|
|-----------------3------------------------2p============0-----------------|
|--------------------------------------------------------------------------|
|--------------------------------------------------------------------------|
|---2----------------------------------------------------------------------|
|--------------------------------------------------------------------------|


  D5
  W
  |
  /

        |-3--|      |---3----|
  T  T  S S  S S    S     S  S S S e S     +S   E   a a E
|-7----10-7--------------10----------------------------------|
|---10------10--------------10-8p7-7-----------10------------|
|--------------9b11-9b11-------------9b11==(9)-(9)r-----9b11r|
|-----------------------------------------------------x------|
|---------------------------------------------------x--------|
|------------------------------------------------------------|
|
| Q                 Q              Q            Q
|----------------------------------2-------------------------|
|-3-----------------3---------------------------3------------|
|------------------------------------------------------------|
|-0----------------------------------------------------------|
|------------------------------------------------------------|
|------------------------------------------------------------|


  A5
   W
   |
   /

          ~~~~~~~~
  +E   E +E. +S   a S S E   +S  a E.
|--------------------------------------|
|--------------------------------------|
|-(9)-/9-(9)-(9)\---6---7---(7)---6h===|
|-----------------x---x---------x------|
|---------------------x----------------|
|--------------------------------------|
|
|                   |-------3-------|
|  H                Q     Q         Q
|--------------------------------------|
|-------------------2h====3p========2--|
|--------------------------------------|
|--2-----------------------------------|
|--0-----------------------------------|
|--------------------------------------|


                                      Outro
  B5
  H              S  S  E   S  S E      W
  |              |  |  |   |  | |      |
  /              x  x  /   x  x /      /

                       ~~~~~~~
    |3| |3|
  E E S S E +E  +E    +E  +E    E      W
|----------------------------------||--------------|
|----------------------------------||o-------------|
|-7p6h7p6--------------------------||--------------|
|---------9-(9)-(9)---(9)-(9)---9/-||--9-----------|
|----------------------------------||o-9-----------|
|----------------------------------||--------------|
|
| E E   Q        H                     Q  Q  Q  Q
|----------------------------------||--------------|
|-3p2p==0--------3-----------------||o-------3-----|
|----------------------------------||-----4-----4--|
|----------------------------------||--4-----------|
|----------------------------------||o-2-----------|
|----------------------------------||--------------|


  D5              A5
  W                W
  |                |
  /                /

  H       H        H            H
|---------------|--------------------|
|---------------|--------------------|
|-7-----/11-----|--9----------/12----|
|-7-----/12-----|-11----------/14----|
|---------------|--------------------|
|---------------|--------------------|
|
| Q  Q    Q  Q     E  E  +Q     H
|---------2-----|-----0--(0)----0----|
|----3-------3--|--------------------|
|-2-------------|--------------------|
|-0-------------|--2-(2)-(2)---------|
|---------------|--0-(0)-(0)---------|
|---------------|--------------------|


  B5                                 D5
   W                 Q.    E H       W
   |                 |     | |       |
   /                 /     / /       /

   W                 W               H        H
|------------------|---------------|---------------|
|------------------|---------------|---------------|
|-11---------------|---------------|-7------/11----|
|-12---------------|-9-------------|-7------/12----|
|------------------|-9-------------|---------------|
|------------------|---------------|---------------|
|
|  E E +E  E Q  Q    Q   Q   Q  Q    Q  E E   H
|------------------|---------------|----3-----2----|
|----------2-3-----|---------3-----|---------------|
|----4-(4)------4--|-----4------4--|-2----2--------|
|------------------|---------------|-0-------------|
|--2---------------|-2-------------|---------------|
|------------------|---------------|---------------|


  A5            B5
   W            H      S S E S S E
   |            |      | | | | | |
   /            /      x x / x x /

   H    H       W
|-------------|---------------------||
|-------------|--------------------o||
|--9----6-----|---------------------||
|-11----7-----|-9-------------------||
|-------------|-9------------------o||
|-------------|---------------------||
|
|                  PM|
|  H    Q  Q    Q  E E Q     Q
|-------0-----|---------------------||
|----------2--|--------3-----------o||
|-------------|----4---------4------||
|--2----------|-4----4--------------||
|--0----------|-2----2-------------o||
|-------------|---------------------||



Duration Legend
---------------
W - whole; H - half; Q - quarter; E - 8th; S - 16th; T - 32nd; X - 64th; a - acciaccatura
+ - note tied to previous; . - note dotted; .. - note double dotted
Uncapitalized letters represent notes that are staccato (1/2 duration)
Irregular groupings are notated above the duration line
Duration letters will always appear directly above the note/fret number it represents the
duration for.  Duration letters with no fret number below them represent rests.  Multi-
bar rests are notated in the form Wxn, where n is the number of bars to rest for.  Low
melody durations appear below the staff

Tablature Legend
----------------
 h   - hammer-on
 p   - pull-off
 b   - bend
 pb  - pre-bend
 r   - bend release (if no number after the r, then release immediately)
 /\  - slide into or out of (from/to "nowhere")
 s   - legato slide
 S   - shift slide
 - natural harmonic
[n]  - artificial harmonic
n(n) - tapped harmonic
 ~   - vibrato
 tr  - trill
 T   - tap
 TP  - trem. picking
 PM  - palm muting
\n/  - tremolo bar dip; n = amount to dip
 \n  - tremolo bar down
 n/  - tremolo bar up
/n\  - tremolo bar inverted dip
 =   - hold bend; also acts as connecting device for hammers/pulls
 <> - volume swell (louder/softer)
 x   - on rhythm slash represents muted slash
 o   - on rhythm slash represents single note slash

Misc Legend
-----------
 |  - bar
||  - double bar
||o - repeat start
o|| - repeat end
*|  - double bar (ending)
 :  - bar (freetime)
 $  - Segno
 &  - Coda
Tempo markers -  = BPM(8/16=s8/s16), where s8 = swing 8ths, s16 = swing 16ths





Comments


Popular Rata Blanca tabs & chords
La Cancion Del Guerrero Bass Tabs
Mujer Amante Bass Tabs
Porque Es Tan Dificil Amar Bass Tabs
Volviendo A Casa Bass Tabs
Angel Tabs
Aria En Sol De La Suite 13 Tabs
Madre Tierra Intro Tabs
Preludio Obsesivo En Vivo En Hermosillo Tabs
SinfoníA FantáStica Tabs
Aun Estas En Mis Suieos Ukulele


Song lyrics



↑ Back to top | Tablatures and chords are parodies/interpretations of the original songs. You may use it for private study, scholarship, research or language learning purposes only
© 2014 AZChords.com Contact us | Privacy policy | DMCA | Add/correct tabs | Request tabs | Top 50 tabs