>
 >
Mujer Amante

Mujer Amante Bass Tabs

Rata Blanca - Mujer Amante chords, tabs, tablatures, lyrics

Guitar lessons | Add/correct | Request | Top 50 tabs Artists:  A B C D E F G H I J K L M N O P Q R S T U V W X Y Z 0-9

Mujer Amante Bass Tabs – Rata Blanca

CD, Sheet music, Poster

Do you like Mujer Amante? Share with your friends now
Bass TabsBass Tabs v2ChordsChords v2Chords v3TabsTabs v2Tabs v3Tabs v4Tabs v5Tabs v6

MUJER AMANTE (Bassline)
As recorded by Rata Blanca
(From the 1990 Album MAGOS, ESPADAS Y ROSAS)

	

Words by Adrian Barilari Music by Walter Giardino

Gtr I (E A D G) - 'Bass'
Gtr II (E A D G B E) - 'Keyboards'
Gtr III (E A D G B E) - 'Gtr 3'

 Intro
  Q=116
  G           Em               Bm   D             G
 4/4
  Gtr II
   W            W              Q.    E  +H         H       +E    E.   E.
|-15--------|--12------------|-7----10-(10)-----|-15------(15)--14---12---|
|-12--------|-(12)-----------|-7-----7--(7)-----|-12------(12)-(12)-(12)--|
|-12--------|-(12)-----------|-7-----7--(7)-----|-12------(12)--11----9---|
|--9--------|--(9)-----------|-9-----7--(7)-----|-------------------------|
|-10--------|---7------------|------------------|-10------(10)-(10)-(10)--|
|-----------|----------------|-7----10-(10)-----|-------------------------|
|
| Gtr I
|  W            H.       Q     Q.    E  +Q   Q     Q.   E   E    E.   E.
|-----------|----------------|------------------|-------------------------|
|-----------|----------------|------------------|-------------------------|
|-----------|----------------|-------5--(5)-----|-------------------------|
|--3--------|---0-------12\--|-7-------------7--|--3----3---3----2----0---|


                                  Verse
                                $
  Bm                                                     D
   W              +W               W             +H      H
|-14-----------|-(14)-----------||-7-----------|-(7)-----5--------|
|-15-----------|-(15)-----------||-7-----------|-(7)-----7--------|
|-16-----------|-(16)-----------||-7-----------|-(7)-----7--------|
|-16-----------|-(16)-----------||-9-----------|-(9)-----7--------|
|-14-----------|-(14)-----------||-------------|------------------|
|--------------|----------------||-------------|------------------|
|
|  Q.   E H        Q.   E Q  Q     Q.   E H       Q.   E Q   Q
|--------------|----------------||-------------|------------------|
|--------------|----------------||-------------|------------------|
|--------------|----------------||-------------|---------5--12\---|
|--7----7-7----|---7----7-7--5--||-7----7-7----|--7----7----------|


  A                            Bm            G      D
  W             +W             W              H     H
|-5-----------|-(5)----------|-7-----------|--7-----5------|
|-5-----------|-(5)----------|-7-----------|--8-----7------|
|-6-----------|-(6)----------|-7-----------|--7-----7------|
|-7-----------|-(7)----------|-9-----------|--------0------|
|-------------|--------------|-------------|-10------------|
|-------------|--------------|-------------|---------------|
|
| Q.   E H       Q.   E H      Q.   E H       Q  Q  Q  Q
|-------------|--------------|-------------|---------------|
|-------------|--------------|-------------|---------------|
|-------------|--------------|-------------|-----5-----5---|
|-5----5-5----|--5----5-5----|-7----7-7----|--3-----5------|


                                Pre-Chorus
  A                              G
  W             +W                W              +W
|-5-----------|-(5)-----------||--7-----------|--(7)----------|
|-5-----------|-(5)-----------||--8-----------|--(8)----------|
|-6-----------|-(6)-----------||--7-----------|--(7)----------|
|-7-----------|-(7)-----------||--------------|---------------|
|-------------|---------------||-10-----------|-(10)----------|
|-------------|---------------||--------------|---------------|
|
| Q.   E H       Q.   E Q  Q      Q.   E H        Q.   E H
|-------------|---------------||--------------|---------------|
|-------------|---------------||--------------|---------------|
|-------------|---------------||--------------|---------------|
|-5----5-5----|--5----5-5--7--||--3----3-3----|---3----3-3----|


                           To Coda
  Bm                                A              Em
  W             +W                  W              W
|-7-----------|-(7)---------------|-5------------|-7---------------|
|-7-----------|-(7)---------------|-5------------|-8---------------|
|-7-----------|-(7)---------------|-6------------|-9---------------|
|-9-----------|-(9)---------------|-7------------|-----------------|
|-------------|-------------------|--------------|-7---------------|
|-------------|-------------------|--------------|-----------------|
|
| Q.   E H       E  E E E +Q   Q    Q.   E Q  Q    Q.   E Q   Q
|-------------|-------------------|--------------|-----------------|
|-------------|-------------------|--------------|-----------------|
|-------------|-------------------|--------------|-----------------|
|-7----7-7----|--5--7---7-(7)--7--|-5----5-5--5--|-0----0-0--12\---|


  D                               G
  W             +W                 W              +W
|-5-----------|-(5)-------------|--7-----------|--(7)----------|
|-7-----------|-(7)-------------|--8-----------|--(8)----------|
|-7-----------|-(7)-------------|--7-----------|--(7)----------|
|-------------|-----------------|--------------|---------------|
|-5-----------|-(5)-------------|-10-----------|-(10)----------|
|-------------|-----------------|--------------|---------------|
|
| Q.   E H       Q.   E E E E E    Q.   E H        Q.   E H
|-------------|-----------------|--------------|---------------|
|-0----0-0----|--0----0-2-0-----|--------------|---------------|
|-------------|-------------4-2-|--------------|---------------|
|-------------|-----------------|--3----3-3----|---3----3-3----|


  Bm                            A              Em
  W             +W              W              W
|-7-----------|-(7)-----------|-5------------|-7---------------|
|-7-----------|-(7)-----------|-5------------|-8---------------|
|-7-----------|-(7)-----------|-6------------|-9---------------|
|-9-----------|-(9)-----------|-7------------|-----------------|
|-------------|---------------|--------------|-7---------------|
|-------------|---------------|--------------|-----------------|
|
| Q.   E H       Q.   E Q  Q    Q.   E Q  Q    Q.   E Q   Q
|-------------|---------------|--------------|-----------------|
|-------------|---------------|--------------|-----------------|
|-------------|---------------|--------------|-----------------|
|-7----7-7----|--7----7-7--7--|-5----5-5--5--|-0----0-0--12\---|


                                    Chorus
  F#                                 Bm             D
   W               +W                W              W
|---------------|----------------||--7------------|-5-------------|
|-11------------|-(11)-----------||o-7------------|-7-------------|
|-11------------|-(11)-----------||--7------------|-7-------------|
|-11------------|-(11)-----------||--9------------|---------------|
|--9------------|--(9)-----------||o--------------|-5-------------|
|---------------|----------------||---------------|---------------|
|
|  Q.   E Q  Q      Q.   E Q  Q      Q.   E Q  Q    Q.   E Q  Q
|---------------|----------------||---------------|---------------|
|---------------|----------------||o--------------|---------------|
|---------------|----------------||o--------------|-5----5-5--5---|
|--2----2-2--4--|---6----6-6--4--||--7----7-7--7--|---------------|


  A                Bm                             D
  W                W                W             W
|-5--------------|-7--------------|-7-----------|-5-------------|
|-5--------------|-7--------------|-7-----------|-7-------------|
|-6--------------|-7--------------|-7-----------|-7-------------|
|-7--------------|-9--------------|-9-----------|---------------|
|----------------|----------------|-------------|-5-------------|
|----------------|----------------|-------------|---------------|
|
| Q.   E Q   Q     Q.   E E E E E   Q.   E H      Q.   E Q  Q
|----------------|----------------|-------------|---------------|
|----------------|----------------|-------------|---------------|
|----------------|----------------|-------------|-5----5-5--5---|
|-5----5-5--12\--|-7----5-7-5-7-5-|-7----7-7----|---------------|


                   1.
  A                Bm
  W                W
|-5--------------|-7---------------||
|-5--------------|-7--------------o||
|-6--------------|-7---------------||
|-7--------------|-9---------------||
|----------------|----------------o||
|----------------|-----------------||
|
| Q.   E Q   Q     Q.   E E E E E
|----------------|-----------------||
|----------------|----------------o||
|----------------|--------5-4-5-4-o||
|-5----5-5--12\--|-7----7----------||


  2.
                             D.S. al Coda
   B5    A5      G           Em
    H     H       W          W
|--------------|--7--------|-7-------------||
|--12----10----|--8--------|-8-------------||
|--11-----9----|--7--------|-9-------------||
|---9-----7----|-----------|-9-------------||
|--------------|-10--------|-7-------------||
|--------------|-----------|---------------||
|
|   H     H       W          H.       Q
|--------------|-----------|---------------||
|--------------|-----------|---------------||
|---2-----0----|-----------|---------------||
|--------------|--3--------|-0-------12\---||


  &
  A                  Em                   D
  W                  W                    W
|-5----------------|-7------------------|-5----------------|
|-5----------------|-8------------------|-7----------------|
|-6----------------|-9------------------|-7----------------|
|-7----------------|--------------------|------------------|
|------------------|-7------------------|-5----------------|
|------------------|--------------------|------------------|
|
| Gtr III
| PM--------------------------------------------------------
| E  E E E E E E E   E  E E E E E  E  E   E  E E E E E E E
|------------------|--------------------|------------------|
|----------5-------|----------8---------|----------7-------|
|------------6-----|------9-----9-------|------7-------7---|
|------7-------7---|----9---9------9----|----7---7---7---7-|
|----7---7-------7-|-7----------------7-|-5----------------|
|-5----------------|--------------------|------------------|
|
| Gtr I
| Q.     E Q   Q     Q.     E Q    Q      Q.     E H
|------------------|--------------------|------------------|
|------------------|--------------------|------------------|
|------------------|--------------------|-5------5-5-------|
|-5------5-5---5---|-0------0-0---12\---|------------------|


                    $$
                      G
  +W                   W
|-(5)---------------|--7------------------|
|-(7)---------------|--8------------------|
|-(7)---------------|--7------------------|
|-------------------|---------------------|
|-(5)---------------|-10------------------|
|-------------------|---------------------|
|
|-------------------------------------|
|  E  E E E E E E E    E  E E E E E E E
|-------------------|---------------------|
|-----------7-7-----|-----------3---------|
|-------7-------7---|-------------4-------|
|-----7---7-------7-|-------5-------5-----|
|--5----------------|-----5---5-------5---|
|-------------------|--3------------------|
|
|  Q.     E E E E E    Q.     E Q   Q
|-------------------|---------------------|
|--0------0-2-0-----|---------------------|
|---------------4-2-|---------------------|
|-------------------|--3------3-3---3-----|


                       Bm
   +W                  W                  +W
|--(7)---------------|-7----------------|-(7)---------------|
|--(8)---------------|-7----------------|-(7)---------------|
|--(7)---------------|-7----------------|-(7)---------------|
|--------------------|-9----------------|-(9)---------------|
|-(10)---------------|------------------|-------------------|
|--------------------|------------------|-------------------|
|
|   PM-------------------------------------------------------
|   E  E E E E E E E   E  E E E E E E E    E  E E E E E E E
|--------------------|------------------|-------------------|
|------------3-------|----------7-------|-----------7-------|
|--------------4-----|------------7-----|-------------7-----|
|--------5-------5---|------9-------9---|-------9-------9---|
|------5---5-------5-|----9---9-------9-|-----9---9-------9-|
|---3----------------|-7----------------|--7----------------|
|
|   Q.     E Q   Q     Q.     E H          Q.     E Q   Q
|--------------------|------------------|-------------------|
|--------------------|------------------|-------------------|
|--------------------|------------------|-------------------|
|---3------3-3---3---|-7------7-7-------|--7------7-7---7---|


  A                  Em                   F#
  W                  W                     W                 +W
|-5----------------|-7------------------|-----------------|------------------||
|-5----------------|-8------------------|-11--------------|-(11)-------------||
|-6----------------|-9------------------|-11--------------|-(11)-------------||
|-7----------------|--------------------|-11--------------|-(11)-------------||
|------------------|-7------------------|--9--------------|--(9)-------------||
|------------------|--------------------|-----------------|------------------||
|
|-----------------------------------------|
| E  E E E E E E E   E  E E E E E  E  E    Q   H.             W
|------------------|--------------------|-----------------|------------------||
|----------5-------|----------8---------|-----------------|------------------||
|------------6-----|------9-----9-------|-----------------|------------------||
|------7-------7---|----9---9------9----|-----------------|------------------||
|----7---7-------7-|-7----------------7-|-----------------|------------------||
|-5----------------|--------------------|--2--------------|------------------||
|
| Q.     E Q   Q     Q.     E Q    Q       Q.     E Q  Q      Q.   E Q  Q
|------------------|--------------------|-----------------|------------------||
|------------------|--------------------|-----------------|------------------||
|------------------|--------------------|-----------------|------------------||
|-5------5-5---5---|-0------0-0---12\---|--2------2-2--4--|---6----6-6--4----||


   Chorus
    Bm             D              A                Bm
    W              W              W                W
||--7------------|-5------------|-5--------------|-7--------------|
||o-7------------|-7------------|-5--------------|-7--------------|
||--7------------|-7------------|-6--------------|-7--------------|
||--9------------|--------------|-7--------------|-9--------------|
||o--------------|-5------------|----------------|----------------|
||---------------|--------------|----------------|----------------|
|
|   Gtr I
|   Q.   E Q  Q    Q.   E Q  Q    Q.   E Q   Q     Q.   E E E E E
||---------------|--------------|----------------|----------------|
||o--------------|--------------|----------------|----------------|
||o--------------|-5----5-5--5--|----------------|----------------|
||--7----7-7--7--|--------------|-5----5-5--12\--|-7----5-7-5-7-5-|


                D              A
  W             W              W
|-7-----------|-5------------|-5--------------|
|-7-----------|-7------------|-5--------------|
|-7-----------|-7------------|-6--------------|
|-9-----------|--------------|-7--------------|
|-------------|-5------------|----------------|
|-------------|--------------|----------------|
|
| Q.   E H      Q.   E Q  Q    Q.   E Q   Q
|-------------|--------------|----------------|
|-------------|--------------|----------------|
|-------------|-5----5-5--5--|----------------|
|-7----7-7----|--------------|-5----5-5--12\--|


  1.                 2.
         To Dbl. Coda
  Bm                  B5    A5
  W                    H     H
|-7---------------||--------------||
|-7--------------o||--12----10----||
|-7---------------||--11-----9----||
|-9---------------||---9-----7----||
|----------------o||--------------||
|-----------------||--------------||
|
| Q.   E E E E E       H     H
|-----------------||--------------||
|----------------o||--------------||
|--------5-4-5-4-o||---2-----0----||
|-7----7----------||--------------||


 Solo
  G              Em              Bm
   W             W               W
|--7-----------|-7-----------||--7------------|
|--8-----------|-8-----------||o-7------------|
|--7-----------|-9-----------||--7------------|
|--------------|-------------||--9------------|
|-10-----------|-7-----------||o--------------|
|--------------|-------------||---------------|
|
|  Q.   E H      Q.   E H        Q.   E Q  Q
|--------------|-------------||---------------|
|--------------|-------------||o--------------|
|--------------|-------------||o--------------|
|--3----3-3----|-0----0-0----||--7----7-7--5--|


                   A
  +W               W
|-(7)------------|-5---------------|
|-(7)------------|-5---------------|
|-(7)------------|-6---------------|
|-(9)------------|-7---------------|
|----------------|-----------------|
|----------------|-----------------|
|
|  Q.   E Q  Q     Q.   E Q  Q
|----------------|-----------------|
|----------------|-----------------|
|----------------|-----------------|
|--7----7-7--7\--|-5----5-5--5\----|


                  1.
  Em              D
  W               W             +W
|-7-------------|-5-----------|-(5)------------|
|-8-------------|-7-----------|-(7)------------|
|-9-------------|-7-----------|-(7)------------|
|---------------|-0-----------|-(0)------------|
|-7-------------|-------------|----------------|
|---------------|-------------|----------------|
|
| Q.   E Q  Q     Q.   E H       Q.   E Q  Q
|---------------|-------------|----------------|
|---------------|-------------|----------------|
|---------------|-5----5-5----|--5----5-5--5\--|
|-0----0-0--7\--|-------------|----------------|


                                   2.
  G                                F#
   W              +W                W
|--7-----------|--(7)-----------||--------------|
|--8-----------|--(8)----------o||-11-----------|
|--7-----------|--(7)-----------||-11-----------|
|--------------|----------------||-11-----------|
|-10-----------|-(10)----------o||--9-----------|
|--------------|----------------||--------------|
|
|  Q.   E H        Q.   E H         Q.   E H
|--------------|----------------||--------------|
|--------------|---------------o||--------------|
|--------------|---------------o||--------------|
|--3----3-3----|---3----3-3-----||--2----2-2----|


                   Bridge
                    G
   +W                W
|----------------||--7-----------|
|-(11)-----------||--8-----------|
|-(11)-----------||--7-----------|
|-(11)-----------||--------------|
|--(9)-----------||-10-----------|
|----------------||--------------|
|
|   Q.   E Q  Q      Q.   E H
|----------------||--------------|
|----------------||--------------|
|----------------||--------------|
|---2----2-2--4--||--3----3-3----|


                  Bm
   +W             W             +W
|--(7)----------|-7-----------|-(7)--------------|
|--(8)----------|-7-----------|-(7)--------------|
|--(7)----------|-7-----------|-(7)--------------|
|---------------|-9-----------|-(9)--------------|
|-(10)----------|-------------|------------------|
|---------------|-------------|------------------|
|
|   Q.   E H      Q.   E H       Q.   E Q  Q
|---------------|-------------|------------------|
|---------------|-------------|------------------|
|---------------|-------------|------------------|
|---3----3-3----|-7----7-7----|--7----7-7--7\----|


                                              D.S.S. al Dbl. Coda
  A              Em               D
  W              W                W             +W
|-5------------|----------------|-------------|-------------------||
|-5------------|-8--------------|-7-----------|-(7)---------------||
|-6------------|-9--------------|-7-----------|-(7)---------------||
|-7------------|-9--------------|-7-----------|-(7)---------------||
|--------------|-7--------------|-5-----------|-(5)---------------||
|--------------|----------------|-------------|-------------------||
|
| Q.   E Q  Q    Q.   E Q   Q     Q.   E H       Q.   E E E E E
|--------------|----------------|-------------|-------------------||
|--------------|----------------|-------------|-------------------||
|--------------|----------------|-5----5-5----|--5----5-7-5-4-----||
|-5----5-5--5--|-0----0-0--12\--|-------------|---------------7\--||


 Guitar solo 2
  &&
  Bm                               D
  W                  W             W
|-7--------------||--7-----------|-5-------------|
|-7--------------||o-7-----------|-7-------------|
|-7--------------||--7-----------|-7-------------|
|-9--------------||--9-----------|-0-------------|
|----------------||o-------------|---------------|
|----------------||--------------|---------------|
|
| Q.   E E E E E     Q.   E H      Q.   E Q  Q
|----------------||--------------|---------------|
|----------------||o-------------|---------------|
|--------5---5-4-||o-------------|-5----5-5--5\--|
|-7----7---7-----||--7----7-7----|---------------|


  A              Bm
  W              W
|-5------------|-7----------------|
|-5------------|-7----------------|
|-6------------|-7----------------|
|-7------------|-9----------------|
|--------------|------------------|
|--------------|------------------|
|
| Q.   E Q  Q    Q.   E E E E E
|--------------|------------------|
|--------------|------------------|
|--------------|--------5---5-4---|
|-5----5-5--5--|-7----7---7-------|


  Bm            D             A             Bm
  W             W             W             W                4x
|-7-----------|-5-----------|-5-----------|-7----------------||
|-7-----------|-7-----------|-5-----------|-7---------------o||
|-7-----------|-7-----------|-6-----------|-7----------------||
|-9-----------|-0-----------|-7-----------|-9----------------||
|-------------|-------------|-------------|-----------------o||
|-------------|-------------|-------------|------------------||
|
| Q.   E H      Q.   E H      Q.   E H      Q.   E E E E E   4x
|-------------|-------------|-------------|------------------||
|-------------|-------------|-------------|-----------------o||
|-------------|-5----5-5----|-------------|-----------------o||
|-7----7-7----|-------------|-5----5-5----|-7----5-7-5-7-5---||


  Bm            D               A              Bm
  W             W               W              W
|-7-----------|-5-------------|-5------------|-7---------------|
|-7-----------|-7-------------|-5------------|-7---------------|
|-7-----------|-7-------------|-6------------|-7---------------|
|-9-----------|-0-------------|-7------------|-9---------------|
|-------------|---------------|--------------|-----------------|
|-------------|---------------|--------------|-----------------|
|
| Q.   E H      Q.   E Q  Q     Q.   E Q  Q    Q.   E E E E E
|-------------|---------------|--------------|-----------------|
|-------------|---------------|--------------|-----------------|
|-------------|-5----5-5--5\--|--------------|--------5---5-4--|
|-7----7-7----|---------------|-5----5-5--5--|-7----7---7------|


  Bm            D             A             Bm
  W             W             W             W
|-7-----------|-5-----------|-5-----------|-7---------------*|
|-7-----------|-7-----------|-5-----------|-7---------------*|
|-7-----------|-7-----------|-6-----------|-7---------------*|
|-9-----------|-0-----------|-7-----------|-9---------------*|
|-------------|-------------|-------------|-----------------*|
|-------------|-------------|-------------|-----------------*|
|
| Q.   E H      Q.   E H      Q.   E H      Q.   E E E E E
|-------------|-------------|-------------|-----------------*|
|-------------|-------------|-------------|-----------------*|
|-------------|-5----5-5----|-------------|-----------------*|
|-7----7-7----|-------------|-5----5-5----|-7----5-7-5-7-5--*|



Duration Legend
---------------
W - whole; H - half; Q - quarter; E - 8th; S - 16th; T - 32nd; X - 64th; a - acciaccatura
+ - note tied to previous; . - note dotted; .. - note double dotted
Uncapitalized letters represent notes that are staccato (1/2 duration)
Irregular groupings are notated above the duration line
Duration letters will always appear directly above the note/fret number it represents the
duration for.  Duration letters with no fret number below them represent rests.  Multi-
bar rests are notated in the form Wxn, where n is the number of bars to rest for.  Low
melody durations appear below the staff

Tablature Legend
----------------
 h   - hammer-on
 p   - pull-off
 b   - bend
 pb  - pre-bend
 r   - bend release (if no number after the r, then release immediately)
 /\  - slide into or out of (from/to "nowhere")
 s   - legato slide
 S   - shift slide
 - natural harmonic
[n]  - artificial harmonic
n(n) - tapped harmonic
 ~   - vibrato
 tr  - trill
 T   - tap
 TP  - trem. picking
 PM  - palm muting
\n/  - tremolo bar dip; n = amount to dip
 \n  - tremolo bar down
 n/  - tremolo bar up
/n\  - tremolo bar inverted dip
 =   - hold bend; also acts as connecting device for hammers/pulls
 <> - volume swell (louder/softer)
 x   - on rhythm slash represents muted slash
 o   - on rhythm slash represents single note slash

Misc Legend
-----------
 |  - bar
||  - double bar
||o - repeat start
o|| - repeat end
*|  - double bar (ending)
 :  - bar (freetime)
 $  - Segno
 &  - Coda
Tempo markers -  = BPM(8/16=s8/s16), where s8 = swing 8ths, s16 = swing 16ths





Comments


Popular Rata Blanca tabs & chords
Aun Estas En Mis Suenos Chords
Agord, La Bruja Tabs
Cuando La Luz Oscurece Tabs
Ella 1 Tabs
Guerrero Del Arco Irirs Intro Tabs
La Cancion Del Guerrero Tabs
La Llave De La Puerta Secreta Tabs
Otono Medieval Tabs
Otoo Medieval Tabs
Rompe El Hechizo Tabs


Song lyrics



↑ Back to top | Tablatures and chords are parodies/interpretations of the original songs. You may use it for private study, scholarship, research or language learning purposes only
© 2014 AZChords.com Contact us | Privacy policy | DMCA | Add/correct tabs | Request tabs | Top 50 tabs