» » »

Rata Blanca, Mujer Amante Tabs (ver.1)

Artists:  A B C D E F G H I J K L M N O P Q R S T U V W X Y Z # 

Mujer Amante Tabs (ver.1)

Rata Blanca Tabs
Rating:
0/5 (0 votes)
Mujer Amante lessons Tabs too difficult? Try these video lessons and learn fast
                Entra con un arpegio con LAm



e-------------------------------------------------
B-5-6-8-6-5---6-5-----5---------------------------
G-----------7-----7-5---7-5---7-5-----------------
D---------------------------9-----9-7-6-9---------
A-----------------------------------------7-(7)-7-
E-------------------------------------------------

e--------------------------------------------------------------------------------
B--------------------------------------------------------------------------------
G-------9-10-9-------------------------------------------------------------------
D-10-12--------12-10-9-----9-10-12-10-9-10-9-7-----5-----------5-----------------
A----------------------------------------------------8-7---7-8---8-7-5---3-2-5---
E------------------------------------------------------------------------------3-

Entra el violín con acompañamiento de LAm SOL LAm, haciendo:

e--------------------------------------------------
B---10--10-10-10--12-13-15--8-8-8--13-12-12-10-----
G-9------------------------------------------------   Violín
D--------------------------------------------------
A--------------------------------------------------
E-------------------------------------------------- 

e------7-8-7----------4-----4----- 
B-9-10-------10-9-6-5---6-5---6-5-
G---------------------------------  Guitarra
D---------------------------------
A---------------------------------
E--------------------------------- 

e-------------------------------------------------- 
B---10--10-10-10--12-13-15--8-8-8--13-12-10--------
G-9------------------------------------------------  Violín
D--------------------------------------------------
A--------------------------------------------------
E-------------------------------------------------- 

e-------------------------------------------------- 
B--------------------------------------------------
G-------9-10-9-------9-------9---------------------  Guitarra
D-10-12--------12-10---12-10---12-10-9-10-12-10----
A--------------------------------------------------
E-------------------------------------------------- 

e-12-12-13-12--15-13-12-12-------------------------- 
B---------------------------15-13-12-13-15-15-13----
G---------------------------------------------------  Violín
D---------------------------------------------------
A---------------------------------------------------
E--------------------------------------------------- 

e-12-10--8--8-7-5-0--
B-13-12-10-----------
G--------------------  Guitarra
D--------------------
A--------------------
E-------------------- 

e-12-12-13-12--15-13-12-12-------------------------- 
B---------------------------15-13-12-10-9-10--------
G---------------------------------------------------  Violín
D---------------------------------------------------
A---------------------------------------------------
E---------------------------------------------------

e---------------
B---------------
G----------7-9--
D-7-9-10-9------
A---------------
E---------------

Lam                 Fa                  Sol
Siento el calor de toda tu piel en mi cuerpo otra vez
    Lam              Fa         Do      Sol
Estrella fugaz que enciende mi ser misteriosa mujer
         Fa                    Lam
Con tu amor sensual cuanto me das?
             Sol  Rem  Do
Haz que mi sueño sea una verdad
        Fa                  Lam
Dame tu alma hoy, hacia el ritual
            Sol   Rem    Sol
Llévame al mundo donde pueda soñar


Lam  Do                 Sol           Lam
Uh, debo saber si en verdad, en algún lado estas
            Do       Sol         Lam    
Voy a buscar una señal, una canción

riff 1
e-----------
B-----------
G-----------
D-----------
A-0-2-3-2-0-
E-----------

Lam  Do                 Sol          Lam
Uh, debo saber si en verdad, en algún lado estas
             Do          Sol       Lam   Fa
Solo el amor que tu me das me ayudara aaaaaa....

e-------------------------------------------------- 
B---10--10-10-10--12-13-15--8-8-8--13-12-12-10-----
G-9------------------------------------------------   Violín
D--------------------------------------------------
A--------------------------------------------------
E-------------------------------------------------- 

e----------------- 
B-----------------
G--------7----7-9-  Guitarra
D-7-9-10---10-----
A-----------------
E----------------- 

e-------------------------------------------------- 
B---10--10-10-10--12-13-15--8-8-8--13-12-10--------
G-9------------------------------------------------  Violín
D--------------------------------------------------
A--------------------------------------------------
E-------------------------------------------------- 

e----------10----10/12-----
B-12-13-12----13-------10--
G--------------------------  Guitarra
D--------------------------
A--------------------------
E--------------------------

e-12-12-13-12--15-13-12-12--------------------------
B---------------------------15-13-12-13-15-15-13----
G---------------------------------------------------  Violín
D---------------------------------------------------
A---------------------------------------------------
E---------------------------------------------------

e----------------------- 
B-----------------------
G-9-9(10)-9----5-5(7)-5-  Guitarra
D-----------------------
A-----------------------
E----------------------- 

e-12-12-13-12--15-13-12-12--------------------------
B---------------------------15-13-12-10-9-10--------
G---------------------------------------------------  Violín
D---------------------------------------------------
A---------------------------------------------------
E---------------------------------------------------


Lam             Fa                Sol
Al amanecer tu imagen se va, misteriosa mujer
   Lam           Fa      Do      Sol
Dejaste en mi, lujuria total, hermosa y sensual
    Fa                    Lam
Corazón sin Dios dame un lugar
      Sol    Rem   Lam
En ese mundo tibio casi irreal
    Fa             Lam
Deberé buscar una señal
      Sol   Rem            Sol
En aquel camino por el que vas.


Lam  Do                 Sol          Lam
Uh, debo saber si en verdad, en algún lado estas
             Do     Sol         Lam   riff 1
Voy a buscar una señal, una canción
     Do                 Sol          Lam
Uh, debo saber si en verdad, en algún lado estas
             Do          Sol        Lam
Solo el amor que tu me das me ayudara.


Rem                              Lam
Tu presencia marco en mi vida el amor, lo se
Fa                                Lam
Es difícil pensar, el vivir ya sin vos.
     Fa                    Lam
Corazón sin Dios dame un lugar
       Sol   Rem    Fa     Sol
En ese mundo tibio casi irreal

Lam Do                 Sol           Lam
Uh, debo saber si en verdad, en algún lado estas
            Do      Sol          Lam
Voy a buscar una señal, una canción
    Do                  Sol           Lam
Uh, debo saber si en verdad, en algún lado estas
             Do         Sol        Lam
Solo el amor que tu me das me ayudara.

listo ahi esta
De gabo para digan
            

comments powered by Disqus
↑ Back to top | Rata Blanca Tabs for Mujer Amante. Lyrics for acoustic guitar and electric guitar. Tablatures and chords are parodies/interpretations of the original songs. You may use it for private study, scholarship, research or language learning purposes only