» » »

Rata Blanca, La Llave De La Puerta Secreta Tabs (ver.3)

Artists:  A B C D E F G H I J K L M N O P Q R S T U V W X Y Z # 

La Llave De La Puerta Secreta Tabs (ver.3)

Rata Blanca Tabs
 Rating:
4/5 (4 votes)
La Llave De La Puerta Secreta lessons Tabs too difficult? Try these video lessons and learn fast
                (Intro)

INTRO:

e|--16p12------12-16p12--14p11------11-14p11--12p9---9-12p9---16p12------12-16p12-|
b|-------14--14---------------13--13--------------9-9--------------14--14---------|
g|---------13-------------------14-----------------9-----------------13-----------|
D|--------------------------------------------------------------------------------|
A|--------------------------------------------------------------------------------|
E|--------------------------------------------------------------------------------|

e|-12p9---9-12p9--11p7---7-11p7--9p6---6-9p6--7p4---4-7p4-|
b|-----9-9------------9-9-----------8-8----------4-4------|
g|------9--------------8-------------9------------4-------|
D|--------------------------------------------------------|
A|--------------------------------------------------------|
E|--------------------------------------------------------|

e|--7p4---4-7p4--10p7----7-10p7--11p7---7-11p7--16p11------11-16p11-|
b|-----6-6-----------9--9------------9-9-------------12--12---------|
g|------7-------------10--------------8----------------13-----------|
D|------------------------------------------------------------------|
A|------------------------------------------------------------------|
E|------------------------------------------------------------------|

e|-13p10------10-13p10--16p13------13-16p13--15(16)~~-----|
b|------12--12---------------15--15-----------------------|
g|--------13-------------------16-------------------------|
D|--------------------------------------------------------|
A|----------------------------------------------------13--|
E|----------------------------------------------------11--|

Lo demas luegose los paso.
            
Submit corrections

comments powered by Disqus
↑ Back to top | Rata Blanca Tabs for La Llave De La Puerta Secreta. Lyrics for acoustic guitar and electric guitar. Tablatures and chords are parodies/interpretations of the original songs. You may use it for private study, scholarship, research or language learning purposes only