>
 >
La Llave De La Puerta Secreta

La Llave De La Puerta Secreta Bass Tabs

Rata Blanca - La Llave De La Puerta Secreta chords, tabs, tablatures, lyrics

Guitar lessons | Add/correct | Request | Top 50 tabs Artists:  A B C D E F G H I J K L M N O P Q R S T U V W X Y Z 0-9

La Llave De La Puerta Secreta Bass Tabs – Rata Blanca

CD, Sheet music, Poster

Do you like La Llave De La Puerta Secreta? Share with your friends now
Bass TabsTabsTabs v2

LA LLAVE DE LA PUERTA SECRETA (Bassline)
As recorded by Rata Blanca
(From the 2005 Album LA LLAVE DE LA PUERTA SECRETA)

	

Words and Music by Walter Giardino

Gtr I (Eb Ab Db Gb) - 'Bass'
Gtr II (Eb Ab Db Gb Bb Eb) - 'Keyboard'
Gtr III (Eb Ab Db Gb Bb Eb) - 'Synth'

 Intro
  Q=175
  (Dm) (Am7/C)(Dm)       (G#7(Am)   (B7)(Am/C) (Eb7(F#7)
 4/4
  Gtr I
  H    H      W          H    H      H    H      H     H
|-----------|----------|-----------|-----------|------------|
|-----------|----------|-----------|-----------|-1-----4----|
|-5----3----|-5--------|-----------|-2----3----|------------|
|-----------|----------|-4----5----|-----------|------------|
|
| Gtr II
| H    H      W          H    H      H    H      H     H
|-----------|----------|-----------|-----------|------------|
|-----------|----------|-----------|-----------|------------|
|-7----5----|-7--------|------2----|-4----5----|-8----11----|
|-----------|----------|-6---------|-----------|------------|
|-5----3----|-5--------|------0----|-2----3----|-6-----9----|
|-----------|----------|-4---------|-----------|------------|


  (Am) (Am/C) (Eb7(F#7)  (Esus4)                   (E)
  H    H      H     H       W           +W           +W           +W
|-----------|------------|-----------|-------------|------------|--------||
|-----------|-1-----4----|-----------|-------------|------------|--------||
|-0----3----|------------|-----------|-------------|------------|--------||
|-----------|------------|--0--------|--(0)--------|-(0)--------|-(0)----||
|
| H    H      H     H       W           +W            W           +W
|-----------|------------|-----------|-------------|------------|--------||
|-----------|------------|-10--------|-(10)--------|--9---------|-(9)----||
|-2----5----|-8----11----|--9--------|--(9)--------|--9---------|-(9)----||
|-----------|------------|-----------|-------------|------------|--------||
|-0----3----|-6-----9----|--7--------|--(7)--------|--7---------|-(7)----||
|-----------|------------|-----------|-------------|------------|--------||


   Pre-Verse
    (Am)
     |-3-| |-3-|   |-3--| |-3-|
     E E E E E E   E  E E E E E
||------------------------------|
||o-----------------------------|
||o-----------------------------|
||---5-5-5-5-5-5---5--5-5-5-5-5-|
|
|    H             H
||--17-----------(17)-----------|
||o-10------------12------------|
||------------------------------|
||---7-------------9------------|
||o--0--------------------------|
||------------------------------|
     W


                               (Dm)
    |-3--| |-3-| |-3-| |-3-|    |-3-| |-3-| |-3-| |-3-|
    E  E E E E E E E E E E E    E E E E E E E E E E E E
|----------------------------|--------------------------|
|----------------------------|--------------------------|
|----------------------------|--5-5-5-5-5-5-5-5-5-5-5-5-|
|---5--5-5-5-5-5-7-7-7-8-8-8-|--------------------------|
|
|   W                           W
|-(17)-----------------------|--------------------------|
|--13------------------------|-12-----------------------|
|----------------------------|--------------------------|
|--10------------------------|--9-----------------------|
|--(0)-----------------------|--5-----------------------|
|----------------------------|--------------------------|
   +W                           W


   |-3--| |-3-| |-3-| |-3-|
   E  E E E E E E E E E E E
|---------------------------|
|---------------------------|
|--5--5-5-5-5-5-8-8-8-7-7-7-|
|---------------------------|
|
|  W
|---------------------------|
|-13------------------------|
|---------------------------|
|-10------------------------|
|-(5)-----------------------|
|---------------------------|
  +W


  (G#)                       (E)
   |-3-| |-3-| |-3-| |-3-|    |-3-| |-3-| |-3-| |-3-|
   E E E E E E E E E E E E    E E E E E E E E E E E E
|--------------------------|---------------------------|
|--------------------------|---------------------------|
|--------------------------|---------------------------|
|--4-4-4-4-4-4-4-4-4-4-4-4-|--0-0-0-0-0-0-4-4-4-4-4-4--|
|
|  W                          W
|-13-----------------------|-12------------------------|
|--------------------------|---------------------------|
|-10-----------------------|--9------------------------|
|--------------------------|---------------------------|
|--------------------------|---------------------------|
|--4-----------------------|--0-----------4------------|
   W                          H           H


  (Am)
   |-3-| |-3-| |-3-| |-3-|
   E E E E E E E E E E E E
|--------------------------|
|--------------------------|
|--------------------------|
|--5-5-5-5-5-5-5-5-5-5-5-5-|
|
|  W
|-10-----------------------|
|--------------------------|
|--5-----------------------|
|--------------------------|
|--0-----------------------|
|--------------------------|
   W


                              (G)
   |-3--| |-3-| |-3-| |-3-|   |-3-| |-3-| |-3-| |-3-|
   E  E E E E E E E E E E E   E E E E E E E E E E E E
|---------------------------|--------------------------|
|---------------------------|--------------------------|
|---------------------------|--------------------------|
|--5--5-5-5-5-5-5-5-5-5-5-5-|-3-3-3-3-3-3-3-3-3-3-3-3--|
|
|  W                          W
|--8------------------------|-8------------------------|
|---------------------------|-8------------------------|
|-(5)-----------------------|-7------------------------|
|---------------------------|--------------------------|
|-(0)-----------------------|--------------------------|
|---------------------------|-3------------------------|
  +W                          W


                              (F)
   |-3--| |-3-| |-3-| |-3-|   |-3-| |-3-| |-3-| |-3-|
   E  E E E E E E E E E E E   E E E E E E E E E E E E
|---------------------------|-------------------------|
|---------------------------|-------------------------|
|---------------------------|-------------------------|
|--3--3-3-3-3-3-3-3-3-3-3-3-|-1-1-1-1-1-1-1-1-1-1-1-1-|
|
|  W                          W
|--7------------------------|-7-----------------------|
|--8------------------------|-------------------------|
|-(7)-----------------------|-5-----------------------|
|---------------------------|-------------------------|
|---------------------------|-------------------------|
|-(3)-----------------------|-1-----------------------|
  +W                          W


   |-3--| |-3-| |-3-| |-3-|
   E  E E E E E E E E E E E
|----------------------------|
|----------------------------|
|----------------------------|
|--1--1-1-1-1-1-1-1-1-1-1-1--|
|
|  W
|--5-------------------------|
|--6-------------------------|
|-(5)------------------------|
|----------------------------|
|----------------------------|
|-(1)------------------------|
  +W


  (E)
  |-3-| |-3-| |-3-| |-3-|    |-3--| |-3-| |-3-| |-3-|
  E E E E E E E E E E E E    E  E E E E E E E E E E E
|-------------------------|----------------------------||
|-------------------------|---------------------------o||
|-------------------------|---------------------------o||
|-0-0-0-0-0-0-0-0-0-0-0-0-|--0--0-0-0-0-0-0-0-0-0-0-0--||
|
| W                         +W
|-7-----------------------|-(7)------------------------||
|-9-----------------------|-(9)-----------------------o||
|-9-----------------------|-(9)------------------------||
|-------------------------|----------------------------||
|-------------------------|---------------------------o||
|-0-----------------------|-(0)------------------------||
                            +W


      (Am)                           C   G
      |-3-|    |-3-|       |-3--|
      E E E Q  E E E Q     E  E E Q   Q   Q   4x
|-||--------------------|---------------------||
|-||o-------------------|--------------------o||
|-||o-------------------|-------------3------o||
|-||--3h5-5-5--3h5-5-5--|--3h=5-5-5-------3---||
|
|     W                   +H          Q   Q   4x
|-||--------------------|---------------------||
|-||o-------------------|------------13------o||
|-||--------------------|----------------12---||
|-||--7-----------------|-(7)--------10-------||
|-||o-------------------|----------------10--o||
|-||--5-----------------|-(5)-----------------||


   Verse
    $
    $$
    (Am)
    Gtr I
    |-3-| |-3-| |-3-| |-3-|    |-3--| |-3-| |-3-| |-3-|
    E E E E E E E E E E E E    E  E E E E E E E E E E E
||--------------------------|---------------------------|
||o-------------------------|---------------------------|
||o-------------------------|---------------------------|
||--5-5-5-5-5-5-5-5-5-5-5-5-|--5--5-5-5-5-5-5-5-5-5-5-5-|
|
|   Gtr II
|   W                         +W
||--------------------------|---------------------------|
||o-------------------------|---------------------------|
||--------------------------|---------------------------|
||--7-----------------------|-(7)-----------------------|
||o-------------------------|---------------------------|
||--5-----------------------|-(5)-----------------------|


   |-3--| |-3-| |-3-| |-3-|    |-3--| |-3-| |-3-| |-3-|
   E  E E E E E E E E E E E    E  E E E E E E E E E E E
|---------------------------|------------------------------|
|---------------------------|------------------------------|
|---------------------------|------------------------------|
|--5--5-5-5-5-5-5-5-5-5-5-5-|--5--5-5-5-5-5-5-5-5-5-5-5----|
|
| +W                          +W
|---------------------------|------------------------------|
|---------------------------|------------------------------|
|---------------------------|------------------------------|
|-(7)-----------------------|-(7)--------------------------|
|---------------------------|------------------------------|
|-(5)-----------------------|-(5)--------------------------|


  (G)
  |-3-| |-3-| |-3-| |-3-|    |-3--| |-3-| |-3-| |-3-|
  E E E E E E E E E E E E    E  E E E E E E E E E E E
|-------------------------|---------------------------|
|-------------------------|---------------------------|
|-------------------------|---------------------------|
|-3-3-3-3-3-3-3-3-3-3-3-3-|--3--3-3-3-3-3-3-3-3-3-3-3-|
|
| W                         +W
|-------------------------|---------------------------|
|-------------------------|---------------------------|
|-------------------------|---------------------------|
|-5-----------------------|-(5)-----------------------|
|-------------------------|---------------------------|
|-3-----------------------|-(3)-----------------------|


 1.
  (Am)                           C   G
  |-3-|    |-3-|       |-3--|
  E E E Q  E E E Q     E  E E Q   Q   Q
|-------------------|----------------------||
|-------------------|---------------------o||
|-------------------|-------------3-------o||
|-3h5-5-5--3h5-5-5--|--3h=5-5-5-------3----||
|
| W                   +H          Q   Q
|-------------------|----------------------||
|-------------------|------------13-------o||
|-------------------|----------------12----||
|-7-----------------|-(7)--------10--------||
|-------------------|----------------10---o||
|-5-----------------|-(5)------------------||


  2.
                                      To Dbl. Coda
  (Am)
  |-3-| |-3-| |-3-| |-3-|    |-3--| |-3-| |-3-|
  E E E E E E E E E E E E    E  E E E E E E E E Q
|-------------------------|------------------------|
|-------------------------|------------------------|
|-------------------------|------------------------|
|-5-5-5-5-5-5-5-5-5-5-5-5-|--5--5-5-5-5-5-5-5-5-3--|
|
| W                         +H.                 Q
|-------------------------|------------------------|
|-------------------------|------------------------|
|-------------------------|------------------------|
|-7-----------------------|-(7)-----------------5--|
|-------------------------|------------------------|
|-5-----------------------|-(5)-----------------3--|


   Chorus
    F                         E
    |-3-| |-3-| |-3-| |-3-|   |-3-| |-3-| |-3-| |-3-|
    E E E E E E E E E E E E   E E E E E E E E E E E E
||--------------------------|-------------------------|
||o-------------------------|-------------------------|
||o-------------------------|-------------------------|
||--1-1-1-1-1-1-1-1-1-1-1-1-|-0-0-0-0-0-0-0-0-0-0-0-0-|
|
|   W                         W
||--------------------------|-------------------------|
||o-------------------------|-------------------------|
||--2-----------------------|-1-----------------------|
||--3-----------------------|-2-----------------------|
||o-------------------------|-------------------------|
||--1-----------------------|-0-----------------------|


  C                         G
  |-3-| |-3-| |-3-| |-3-|   |-3-| |-3-| |-3-| |-3-|
  E E E E E E E E E E E E   E E E E E E E E E E E E
|-------------------------|-------------------------|
|-------------------------|-------------------------|
|-3-3-3-3-3-3-3-3-3-3-3-3-|-------------------------|
|-------------------------|-3-3-3-3-3-3-3-3-3-3-3-3-|
|
| W                         W
|-------------------------|-------------------------|
|-------------------------|-------------------------|
|-0-----------------------|-4-----------------------|
|-2-----------------------|-5-----------------------|
|-3-----------------------|-------------------------|
|-------------------------|-3-----------------------|


 1.
  Dm
  |-3-| |-3-| |-3-| |-3-|    |-3--| |-3-| |-3-| |-3-|
  E E E E E E E E E E E E    E  E E E E E E E E E E E
|-------------------------|------------------------------|
|-------------------------|------------------------------|
|-5-5-5-5-5-5-7-7-7-7-7-7-|--8--8-8-8-8-8-8-8-8-8-8-8----|
|-------------------------|------------------------------|
|
| W                         +W
|-------------------------|------------------------------|
|-------------------------|------------------------------|
|-2-----------------------|-(2)--------------------------|
|-3-----------------------|-(3)--------------------------|
|-5-----------------------|-(5)--------------------------|
|-------------------------|------------------------------|


  E
  |-3-| |-3-| |-3-| |-3-|    |-3--| |-3-| |-3-| |-3-|
  E E E E E E E E E E E E    E  E E E E E E E E E E E
|-------------------------|----------------------------||
|-------------------------|---------------------------o||
|-------------------------|---------------------------o||
|-0-0-0-0-0-0-0-0-0-0-0-0-|--0--0-0-0-0-0-0-0-0-0-0-0--||
|
| W                         +W
|-------------------------|----------------------------||
|-------------------------|---------------------------o||
|-1-----------------------|-(1)------------------------||
|-2-----------------------|-(2)------------------------||
|-------------------------|---------------------------o||
|-0-----------------------|-(0)------------------------||


  2.
  F                         E
  |-3-| |-3-| |-3-| |-3-|   |-3-| |-3-| |-3-| |-3-|
  E E E E E E E E E E E E   E E E E E E E E E E E E
|-------------------------|----------------------------||
|-------------------------|----------------------------||
|-------------------------|----------------------------||
|-1-1-1-1-1-1-1-1-1-1-1-1-|-0-0-0-0-0-0-0-0-0-0-0-0----||
|
| W                         W
|-------------------------|----------------------------||
|-------------------------|----------------------------||
|-2-----------------------|-1--------------------------||
|-3-----------------------|-2--------------------------||
|-------------------------|----------------------------||
|-1-----------------------|-0--------------------------||


 Interlude
  (Am)
   |-3-| |-3-|   |-3--| |-3-|
   E E E E E E   E  E E E E E
|-----------------------------|
|-----------------------------|
|-----------------------------|
|--5-5-5-5-5-5---5--5-5-5-5-5-|
|
|  H             H
|-17-----------(17)-----------|
|-10------------12------------|
|-----------------------------|
|--7-------------9------------|
|--0--------------------------|
|-----------------------------|
   W


                               (Dm)
    |-3--| |-3-| |-3-| |-3-|    |-3-| |-3-| |-3-| |-3-|
    E  E E E E E E E E E E E    E E E E E E E E E E E E
|----------------------------|---------------------------|
|----------------------------|---------------------------|
|----------------------------|--5-5-5-5-5-5-5-5-5-5-5-5--|
|---5--5-5-5-5-5-7-7-7-8-8-8-|---------------------------|
|
|   W                           W
|-(17)-----------------------|---------------------------|
|--13------------------------|-12------------------------|
|----------------------------|---------------------------|
|--10------------------------|--9------------------------|
|--(0)-----------------------|--5------------------------|
|----------------------------|---------------------------|
   +W                           W


   |-3-| |-3-| |-3-| |-3-|
   E E E E E E E E E E E E
|--------------------------|
|--------------------------|
|--5-5-5-5-5-5-8-8-8-7-7-7-|
|--------------------------|
|
|  W
|--------------------------|
|-13-----------------------|
|--------------------------|
|-10-----------------------|
|--5-----------------------|
|--------------------------|
   W


  (G#)                       (E)
   |-3-| |-3-| |-3-| |-3-|    |-3-| |-3-| |-3-| |-3-|
   E E E E E E E E E E E E    E E E E E E E E E E E E
|--------------------------|---------------------------|
|--------------------------|---------------------------|
|--------------------------|---------------------------|
|--4-4-4-4-4-4-4-4-4-4-4-4-|--0-0-0-0-0-0-4-4-4-4-4-4--|
|
|  W                          W
|-13-----------------------|-12------------------------|
|--------------------------|---------------------------|
|-10-----------------------|--9------------------------|
|--------------------------|---------------------------|
|--------------------------|---------------------------|
|--4-----------------------|--0-----------4------------|
   W                          H           H


  (Am)
   |-3-| |-3-| |-3-| |-3-|    |-3--| |-3-| |-3-| |-3-|
   E E E E E E E E E E E E    E  E E E E E E E E E E E
|--------------------------|---------------------------|
|--------------------------|---------------------------|
|--------------------------|---------------------------|
|--5-5-5-5-5-5-5-5-5-5-5-5-|--5--5-5-5-5-5-5-5-5-5-5-5-|
|
|  W                          W
|-10-----------------------|--8------------------------|
|--------------------------|---------------------------|
|--5-----------------------|-(5)-----------------------|
|--------------------------|---------------------------|
|--0-----------------------|-(0)-----------------------|
|--------------------------|---------------------------|
   W                         +W


  (G)
  |-3-| |-3-| |-3-| |-3-|    |-3--| |-3-| |-3-| |-3-|
  E E E E E E E E E E E E    E  E E E E E E E E E E E
|-------------------------|------------------------------|
|-------------------------|------------------------------|
|-------------------------|------------------------------|
|-3-3-3-3-3-3-3-3-3-3-3-3-|--3--3-3-3-3-3-3-3-3-3-3-3----|
|
| W                          W
|-8-----------------------|--7---------------------------|
|-8-----------------------|--8---------------------------|
|-7-----------------------|-(7)--------------------------|
|-------------------------|------------------------------|
|-------------------------|------------------------------|
|-3-----------------------|-(3)--------------------------|
  W                         +W


  (F)
  |-3-| |-3-| |-3-| |-3-|    |-3--| |-3-| |-3-| |-3-|
  E E E E E E E E E E E E    E  E E E E E E E E E E E
|-------------------------|---------------------------|
|-------------------------|---------------------------|
|-------------------------|---------------------------|
|-1-1-1-1-1-1-1-1-1-1-1-1-|--1--1-1-1-1-1-1-1-1-1-1-1-|
|
| W                          W
|-7-----------------------|--5------------------------|
|-------------------------|--6------------------------|
|-5-----------------------|-(5)-----------------------|
|-------------------------|---------------------------|
|-------------------------|---------------------------|
|-1-----------------------|-(1)-----------------------|
  W                         +W


                                          D.S. al Coda
                                          D.S. al Coda
  (E)
  |-3-| |-3-| |-3-| |-3-|    |-3--| |-3-| |-3-| |-3-|
  E E E E E E E E E E E E    E  E E E E E E E E E E E
|-------------------------|------------------------------||
|-------------------------|------------------------------||
|-------------------------|------------------------------||
|-0-0-0-0-0-0-0-0-0-0-0-0-|--0--0-0-0-0-0-0-0-0-0-0-0----||
|
| W                         +W
|-7-----------------------|-(7)--------------------------||
|-9-----------------------|-(9)--------------------------||
|-9-----------------------|-(9)--------------------------||
|-------------------------|------------------------------||
|-------------------------|------------------------------||
|-0-----------------------|-(0)--------------------------||
  W                         +W


   Bridge
    &
    (Dm) (Am7/C)(Dm)       (G#7(Am)   (B7)(Am/C) (Eb7(F#7)
   4/4
    Gtr I
    H    H      W          H    H      H    H      H     H
||------------|----------|-----------|-----------|------------|
||o-----------|----------|-----------|-----------|-1-----4----|
||o-5----3----|-5--------|-----------|-2----3----|------------|
||------------|----------|-4----5----|-----------|------------|
|
|   Gtr II
|   H    H      W          H    H      H    H      H     H
||------------|----------|-----------|-----------|------------|
||o-----------|----------|-----------|-----------|------------|
||--7----5----|-7--------|------2----|-4----5----|-8----11----|
||------------|----------|-6---------|-----------|------------|
||o-5----3----|-5--------|------0----|-2----3----|-6-----9----|
||------------|----------|-4---------|-----------|------------|


                          1.            2.
  (Am) (Am/C) (Eb7(F#7)  (Esus4)      E
  H    H      H     H      W            W          +W
|-----------|------------|-----------||----------|--------||
|-----------|-1-----4----|----------o||----------|--------||
|-0----3----|------------|----------o||----------|--------||
|-----------|------------|-0---------||-0--------|-(0)----||
|
| H    H      H     H      W            W          +W
|-----------|------------|-----------||----------|--------||
|-----------|------------|-9--------o||-9--------|-(9)----||
|-2----5----|-8----11----|-9---------||-9--------|-(9)----||
|-----------|------------|-----------||----------|--------||
|-0----3----|-6-----9----|-7--------o||-7--------|-(7)----||
|-----------|------------|-----------||----------|--------||


   Guitar Solo
    F#m
    |-3-| |-3-| |-3-| |-3-|    |-3--| |-3-| |-3-| |-3-|
    E E E E E E E E E E E E    E  E E E E E E E E E E E
||--------------------------|---------------------------|
||o-------------------------|---------------------------|
||o-------------------------|---------------------------|
||--2-2-2-2-2-2-2-2-2-2-2-2-|--2--2-2-2-2-2-2-2-2-2-2-2-|
|
|   W                         +W
||--------------------------|---------------------------|
||o-------------------------|---------------------------|
||--2-----------------------|-(2)-----------------------|
||--4-----------------------|-(4)-----------------------|
||o-------------------------|---------------------------|
||--2-----------------------|-(2)-----------------------|


   |-3--| |-3-| |-3-| |-3-|    |-3--| |-3-| |-3-| |-3-|
   E  E E E E E E E E E E E    E  E E E E E E E E E E E
|---------------------------|----------------------------|
|---------------------------|----------------------------|
|---------------------------|----------------------------|
|--2--2-2-2-2-2-2-2-2-2-2-2-|--2--2-2-2-2-2-2-2-2-2-2-2--|
|
| +W                          +W
|---------------------------|----------------------------|
|---------------------------|----------------------------|
|-(2)-----------------------|-(2)------------------------|
|-(4)-----------------------|-(4)------------------------|
|---------------------------|----------------------------|
|-(2)-----------------------|-(2)------------------------|


  D
  |-3-| |-3-| |-3-| |-3-|    |-3--| |-3-| |-3-| |-3-|
  E E E E E E E E E E E E    E  E E E E E E E E E E E
|-------------------------|---------------------------|
|-------------------------|---------------------------|
|-5-5-5-5-5-5-5-5-5-5-5-5-|--5--5-5-5-5-5-5-5-5-5-5-5-|
|-------------------------|---------------------------|
|
| W                         +W
|-------------------------|---------------------------|
|-------------------------|---------------------------|
|-7-----------------------|-(7)-----------------------|
|-------------------------|---------------------------|
|-5-----------------------|-(5)-----------------------|
|-------------------------|---------------------------|


   |-3--| |-3-| |-3-| |-3-|    |-3--| |-3-| |-3-| |-3-|
   E  E E E E E E E E E E E    E  E E E E E E E E E E E
|---------------------------|------------------------------||
|---------------------------|-----------------------------o||
|--5--5-5-5-5-5-5-5-5-5-5-5-|--5--5-5-5-5-5-5-5-5-5-5-5---o||
|---------------------------|------------------------------||
|
| +W                          +W
|---------------------------|------------------------------||
|---------------------------|-----------------------------o||
|-(7)-----------------------|-(7)--------------------------||
|---------------------------|------------------------------||
|-(5)-----------------------|-(5)-------------------------o||
|---------------------------|------------------------------||


  Am
  Gtr III
   W                          +W
|-20-----------------------|-(20)-----------------------|
|--------------------------|----------------------------|
|-17-----------------------|-(17)-----------------------|
|--------------------------|----------------------------|
|--------------------------|----------------------------|
|--------------------------|----------------------------|
|
| Gtr I
|  |-3-| |-3-| |-3-| |-3-|     |-3--| |-3-| |-3-| |-3-|
|  E E E E E E E E E E E E     E  E E E E E E E E E E E
|--------------------------|----------------------------|
|--------------------------|----------------------------|
|--------------------------|----------------------------|
|--5-5-5-5-5-5-5-5-5-5-5-5-|---5--5-5-5-5-5-5-5-5-5-5-5-|
|
| Gtr II
|  W                          +W
|--------------------------|----------------------------|
|--------------------------|----------------------------|
|--5-----------------------|--(5)-----------------------|
|--7-----------------------|--(7)-----------------------|
|--------------------------|----------------------------|
|--5-----------------------|--(5)-----------------------|


   W                           +W
|-19------------------------|-(19)-------------------------|
|---------------------------|------------------------------|
|-16------------------------|-(16)-------------------------|
|---------------------------|------------------------------|
|---------------------------|------------------------------|
|---------------------------|------------------------------|
|
|  |-3--| |-3-| |-3-| |-3-|     |-3--| |-3-| |-3-| |-3-|
|  E  E E E E E E E E E E E     E  E E E E E E E E E E E
|---------------------------|------------------------------|
|---------------------------|------------------------------|
|---------------------------|------------------------------|
|--5--5-5-5-5-5-5-5-5-5-5-5-|---5--5-5-5-5-5-5-5-5-5-5-5---|
|
| +W                           +W
|---------------------------|------------------------------|
|---------------------------|------------------------------|
|-(5)-----------------------|--(5)-------------------------|
|-(7)-----------------------|--(7)-------------------------|
|---------------------------|------------------------------|
|-(5)-----------------------|--(5)-------------------------|


   W                           +W
|-17------------------------|-(17)-----------------------|
|---------------------------|----------------------------|
|-14------------------------|-(14)-----------------------|
|---------------------------|----------------------------|
|---------------------------|----------------------------|
|---------------------------|----------------------------|
|
|  |-3--| |-3-| |-3-| |-3-|     |-3--| |-3-| |-3-| |-3-|
|  E  E E E E E E E E E E E     E  E E E E E E E E E E E
|---------------------------|----------------------------|
|---------------------------|----------------------------|
|---------------------------|----------------------------|
|--5--5-5-5-5-5-5-5-5-5-5-5-|---5--5-5-5-5-5-5-5-5-5-5-5-|
|
| +W                           +W
|---------------------------|----------------------------|
|---------------------------|----------------------------|
|-(5)-----------------------|--(5)-----------------------|
|-(7)-----------------------|--(7)-----------------------|
|---------------------------|----------------------------|
|-(5)-----------------------|--(5)-----------------------|


   W                           +W
|-19------------------------|-(19)--------------------------|
|---------------------------|-------------------------------|
|-16------------------------|-(16)--------------------------|
|---------------------------|-------------------------------|
|---------------------------|-------------------------------|
|---------------------------|-------------------------------|
|
|  |-3--| |-3-| |-3-| |-3-|     |-3--| |-3-| |-3-| |-3-|
|  E  E E E E E E E E E E E     E  E E E E E E E E E E E
|---------------------------|-------------------------------|
|---------------------------|-------------------------------|
|---------------------------|-------------------------------|
|--5--5-5-5-5-5-5-5-5-5-5-5-|---5--5-5-5-5-5-5-5-5-5-5-5----|
|
| +W                           +W
|---------------------------|-------------------------------|
|---------------------------|-------------------------------|
|-(5)-----------------------|--(5)--------------------------|
|-(7)-----------------------|--(7)--------------------------|
|---------------------------|-------------------------------|
|-(5)-----------------------|--(5)--------------------------|


  Am
   W                          +W
|--8-----------------------|--(8)-----------------------|
|-10-----------------------|-(10)-----------------------|
|--9-----------------------|--(9)-----------------------|
|--------------------------|----------------------------|
|--------------------------|----------------------------|
|--------------------------|----------------------------|
|
|  |-3-| |-3-| |-3-| |-3-|     |-3--| |-3-| |-3-| |-3-|
|  E E E E E E E E E E E E     E  E E E E E E E E E E E
|--------------------------|----------------------------|
|--------------------------|----------------------------|
|--------------------------|----------------------------|
|--5-5-5-5-5-5-5-5-5-5-5-5-|---5--5-5-5-5-5-5-5-5-5-5-5-|
|
|  W                          +W
|--------------------------|----------------------------|
|--------------------------|----------------------------|
|--5-----------------------|--(5)-----------------------|
|--7-----------------------|--(7)-----------------------|
|--------------------------|----------------------------|
|--5-----------------------|--(5)-----------------------|


  G
  W                         +W
|-------------------------|------------------------------|
|-8-----------------------|-(8)--------------------------|
|-7-----------------------|-(7)--------------------------|
|-5-----------------------|-(5)--------------------------|
|-------------------------|------------------------------|
|-------------------------|------------------------------|
|
| |-3-| |-3-| |-3-| |-3-|    |-3--| |-3-| |-3-| |-3-|
| E E E E E E E E E E E E    E  E E E E E E E E E E E
|-------------------------|------------------------------|
|-------------------------|------------------------------|
|-------------------------|------------------------------|
|-3-3-3-3-3-3-3-3-3-3-3-3-|--3--3-3-3-3-3-3-3-3-3-3-3----|
|
| W                         +W
|-------------------------|------------------------------|
|-------------------------|------------------------------|
|-4-----------------------|-(4)--------------------------|
|-5-----------------------|-(5)--------------------------|
|-------------------------|------------------------------|
|-3-----------------------|-(3)--------------------------|


  D
   W
|-10-----------------------|
|--------------------------|
|--7-----------------------|
|--------------------------|
|--------------------------|
|--------------------------|
|
| Gtr I
|  |-3-| |-3-| |-3-| |-3-|
|  E E E E E E E E E E E E
|--------------------------|
|--------------------------|
|--5-5-5-5-5-5-5-5-5-5-5-5-|
|--------------------------|
|
| Gtr II
|  W
|--------------------------|
|--------------------------|
|--7-----------------------|
|--------------------------|
|--5-----------------------|
|--------------------------|


  Eb                         E
   W                          W
|-11-----------------------|-12------------------------|
|--------------------------|---------------------------|
|--8-----------------------|--9------------------------|
|--------------------------|---------------------------|
|--------------------------|---------------------------|
|--------------------------|---------------------------|
|
|  |-3-| |-3-| |-3-| |-3-|    |-3-| |-3-| |-3-| |-3-|
|  E E E E E E E E E E E E    E E E E E E E E E E E E
|--------------------------|---------------------------|
|--------------------------|---------------------------|
|--6-6-6-6-6-6-6-6-6-6-6-6-|--7-7-7-7-7-7-7-7-7-7-7-7--|
|--------------------------|---------------------------|
|
|  W                          W
|--------------------------|---------------------------|
|--------------------------|---------------------------|
|--8-----------------------|--9------------------------|
|--------------------------|---------------------------|
|--6-----------------------|--7------------------------|
|--------------------------|---------------------------|


   +W                           +W
|-(12)-----------------------|-(12)-----------------------|
|----------------------------|----------------------------|
|--(9)-----------------------|--(9)-----------------------|
|----------------------------|----------------------------|
|----------------------------|----------------------------|
|----------------------------|----------------------------|
|
|   |-3--| |-3-| |-3-| |-3-|     |-3--| |-3-| |-3-| |-3-|
|   E  E E E E E E E E E E E     E  E E E E E E E E E E E
|----------------------------|----------------------------|
|----------------------------|----------------------------|
|---7--7-7-7-7-7-7-7-7-7-7-7-|---7--7-7-7-7-7-7-7-7-7-7-7-|
|----------------------------|----------------------------|
|
|  +W                            W
|----------------------------|----------------------------|
|----------------------------|---9------------------------|
|--(9)-----------------------|--(9)-----------------------|
|----------------------------|----------------------------|
|--(7)-----------------------|--(7)-----------------------|
|----------------------------|----------------------------|


      D.S.S. al Dbl. Coda
   +W
|-(12)------------------------||
|-----------------------------||
|--(9)------------------------||
|-----------------------------||
|-----------------------------||
|-----------------------------||
|
|   |-3--| |-3-| |-3-| |-3-|
|   E  E E E E E E E E E E E
|-----------------------------||
|-----------------------------||
|---7--7-7-7-7-7-7-7-7-7-7-7--||
|-----------------------------||
|
|  +W
|-----------------------------||
|--(9)------------------------||
|--(9)------------------------||
|-----------------------------||
|--(7)------------------------||
|-----------------------------||


   Chorus
    &&
    F                         E
    Gtr II
    W                         W
||--------------------------|--------------------------|
||o-------------------------|--------------------------|
||--2-----------------------|-1------------------------|
||--3-----------------------|-2------------------------|
||o-------------------------|--------------------------|
||--1-----------------------|-0------------------------|
|
|   Gtr I
|   |-3-| |-3-| |-3-| |-3-|   |-3-| |-3-| |-3-| |-3-|
|   E E E E E E E E E E E E   E E E E E E E E E E E E
||--------------------------|--------------------------|
||o-------------------------|--------------------------|
||o-------------------------|--------------------------|
||--1-1-1-1-1-1-1-1-1-1-1-1-|-0-0-0-0-0-0-0-0-0-0-0-0--|


  C                         G
  |-3-| |-3-| |-3-| |-3-|   |-3-| |-3-| |-3-| |-3-|
  E E E E E E E E E E E E   E E E E E E E E E E E E
|-------------------------|-------------------------|
|-------------------------|-------------------------|
|-3-3-3-3-3-3-3-3-3-3-3-3-|-------------------------|
|-------------------------|-3-3-3-3-3-3-3-3-3-3-3-3-|
|
| Gtr II
| W                         W
|-------------------------|-------------------------|
|-------------------------|-------------------------|
|-0-----------------------|-4-----------------------|
|-2-----------------------|-5-----------------------|
|-3-----------------------|-------------------------|
|-------------------------|-3-----------------------|


 1.
  Dm
  |-3-| |-3-| |-3-| |-3-|    |-3--| |-3-| |-3-| |-3-|
  E E E E E E E E E E E E    E  E E E E E E E E E E E
|-------------------------|------------------------------|
|-------------------------|------------------------------|
|-5-5-5-5-5-5-5-5-5-5-5-5-|--5--5-5-5-5-5-5-5-5-5-5-5----|
|-------------------------|------------------------------|
|
| W                         +W
|-------------------------|------------------------------|
|-------------------------|------------------------------|
|-2-----------------------|-(2)--------------------------|
|-3-----------------------|-(3)--------------------------|
|-5-----------------------|-(5)--------------------------|
|-------------------------|------------------------------|


  E
  |-3-| |-3-| |-3-| |-3-|    |-3--| |-3-| |-3-| |-3-|
  E E E E E E E E E E E E    E  E E E E E E E E E E E
|-------------------------|----------------------------||
|-------------------------|---------------------------o||
|-------------------------|---------------------------o||
|-0-0-0-0-0-0-0-0-0-0-0-0-|--0--0-0-0-0-0-0-0-0-0-0-0--||
|
| W                         +W
|-------------------------|----------------------------||
|-------------------------|---------------------------o||
|-1-----------------------|-(1)------------------------||
|-2-----------------------|-(2)------------------------||
|-------------------------|---------------------------o||
|-0-----------------------|-(0)------------------------||


  2.
  F                         E
  |-3-| |-3-| |-3-| |-3-|
  E E E E E E E E E E E E   Q  H.
|-------------------------|----------||
|-------------------------|----------||
|-------------------------|----------||
|-1-1-1-1-1-1-1-1-1-1-1-1-|-0--------||
|
| W                         Q  H.
|-------------------------|----------||
|-------------------------|----------||
|-2-----------------------|-1--------||
|-3-----------------------|-2--------||
|-------------------------|----------||
|-1-----------------------|-0--------||


   Interlude
    (Am)
     |-3-| |-3-|   |-3--| |-3-|
     E E E E E E   E  E E E E E
||------------------------------|
||o-----------------------------|
||o-----------------------------|
||---5-5-5-5-5-5---5--5-5-5-5-5-|
|
|    H             H
||--17-----------(17)-----------|
||o-10------------12------------|
||------------------------------|
||---7-------------9------------|
||o--0--------------------------|
||------------------------------|
     W


                               (Dm)
    |-3--| |-3-| |-3-| |-3-|    |-3-| |-3-| |-3-| |-3-|
    E  E E E E E E E E E E E    E E E E E E E E E E E E
|----------------------------|--------------------------|
|----------------------------|--------------------------|
|----------------------------|--5-5-5-5-5-5-5-5-5-5-5-5-|
|---5--5-5-5-5-5-7-7-7-8-8-8-|--------------------------|
|
|   W                           W
|-(17)-----------------------|--------------------------|
|--13------------------------|-12-----------------------|
|----------------------------|--------------------------|
|--10------------------------|--9-----------------------|
|--(0)-----------------------|--5-----------------------|
|----------------------------|--------------------------|
   +W                           W


   |-3-| |-3-| |-3-| |-3-|
   E E E E E E E E E E E E
|--------------------------|
|--------------------------|
|--5-5-5-5-5-5-8-8-8-7-7-7-|
|--------------------------|
|
|  W
|--------------------------|
|-13-----------------------|
|--------------------------|
|-10-----------------------|
|--5-----------------------|
|--------------------------|
   W


  (G#)                       (E)
   |-3-| |-3-| |-3-| |-3-|    |-3-| |-3-| |-3-| |-3-|
   E E E E E E E E E E E E    E E E E E E E E E E E E
|--------------------------|---------------------------|
|--------------------------|---------------------------|
|--------------------------|---------------------------|
|--4-4-4-4-4-4-4-4-4-4-4-4-|--0-0-0-0-0-0-4-4-4-4-4-4--|
|
|  W                          W
|-13-----------------------|-12------------------------|
|--------------------------|---------------------------|
|-10-----------------------|--9------------------------|
|--------------------------|---------------------------|
|--------------------------|---------------------------|
|--4-----------------------|--0-----------4------------|
   W                          H           H


  (Am)
   |-3-| |-3-| |-3-| |-3-|    |-3--| |-3-| |-3-| |-3-|
   E E E E E E E E E E E E    E  E E E E E E E E E E E
|--------------------------|---------------------------|
|--------------------------|---------------------------|
|--------------------------|---------------------------|
|--5-5-5-5-5-5-5-5-5-5-5-5-|--5--5-5-5-5-5-5-5-5-5-5-5-|
|
|  W                          W
|-10-----------------------|--8------------------------|
|--------------------------|---------------------------|
|--5-----------------------|-(5)-----------------------|
|--------------------------|---------------------------|
|--0-----------------------|-(0)-----------------------|
|--------------------------|---------------------------|
   W                         +W


  (G)
  |-3-| |-3-| |-3-| |-3-|    |-3--| |-3-| |-3-| |-3-|
  E E E E E E E E E E E E    E  E E E E E E E E E E E
|-------------------------|------------------------------|
|-------------------------|------------------------------|
|-------------------------|------------------------------|
|-3-3-3-3-3-3-3-3-3-3-3-3-|--3--3-3-3-3-3-3-3-3-3-3-3----|
|
| W                          W
|-8-----------------------|--7---------------------------|
|-8-----------------------|--8---------------------------|
|-7-----------------------|-(7)--------------------------|
|-------------------------|------------------------------|
|-------------------------|------------------------------|
|-3-----------------------|-(3)--------------------------|
  W                         +W


  (F)
  |-3-| |-3-| |-3-| |-3-|    |-3--| |-3-| |-3-| |-3-|
  E E E E E E E E E E E E    E  E E E E E E E E E E E
|-------------------------|---------------------------|
|-------------------------|---------------------------|
|-------------------------|---------------------------|
|-1-1-1-1-1-1-1-1-1-1-1-1-|--1--1-1-1-1-1-1-1-1-1-1-1-|
|
| W                          W
|-7-----------------------|--5------------------------|
|-------------------------|--6------------------------|
|-5-----------------------|-(5)-----------------------|
|-------------------------|---------------------------|
|-------------------------|---------------------------|
|-1-----------------------|-(1)-----------------------|
  W                         +W


  (E)
  |-3-| |-3-| |-3-| |-3-|    |-3--| |-3-| |-3-| |-3-|
  E E E E E E E E E E E E    E  E E E E E E E E E E E
|-------------------------|-------------------------------||
|-------------------------|------------------------------o||
|-------------------------|------------------------------o||
|-0-0-0-0-0-0-0-0-0-0-0-0-|--0--0-0-0-0-0-0-0-0-0-0-0-----||
|
| W                         +W
|-7-----------------------|-(7)---------------------------||
|-9-----------------------|-(9)--------------------------o||
|-9-----------------------|-(9)---------------------------||
|-------------------------|-------------------------------||
|-------------------------|------------------------------o||
|-0-----------------------|-(0)---------------------------||
  W                         +W


 Outro
  (Dm) (Am7/C)(Dm) (G#7) Am
 4/4
  Gtr I
  H    H      H    H      Q  Q  H      Q  Q  H      Q  Q  H
|-----------|-----------|------------|------------|------------|
|-----------|-----------|------------|------------|------------|
|-5----3----|-5---------|------------|------------|------------|
|-----------|------4----|-5----------|-5----------|-5----------|
|
| Gtr II
| H    H      H    H      Q  Q  H      Q  Q  H      Q  Q  H
|-----------|-----------|------------|------------|------------|
|-----------|-----------|------------|------------|------------|
|-7----5----|-7---------|-5----------|-5----------|-5----------|
|-----------|------6----|-7----------|-7----------|-7----------|
|-5----3----|-5---------|------------|------------|------------|
|-----------|------4----|-5----------|-5----------|-5----------|


             Am
  W          W          +W           +W           +h     H
|----------:----------:------------:------------:-------------*|
|----------:----------:------------:------------:-------------*|
|----------:----------:------------:------------:-------------*|
|----------:-5--------:-(5)--------:-(5)--------:-(5)---------*|
|
| W          W          +W           +W           +H     H
|----------:----------:------------:------------:-------------*|
|----------:-5--------:-(5)--------:-(5)--------:-(5)---------*|
|----------:-5--------:-(5)--------:-(5)--------:-(5)---------*|
|----------:-7--------:-(7)--------:-(7)--------:-(7)---------*|
|----------:----------:------------:------------:-------------*|
|----------:-5--------:-(5)--------:-(5)--------:-(5)---------*|



Duration Legend
---------------
W - whole; H - half; Q - quarter; E - 8th; S - 16th; T - 32nd; X - 64th; a - acciaccatura
+ - note tied to previous; . - note dotted; .. - note double dotted
Uncapitalized letters represent notes that are staccato (1/2 duration)
Irregular groupings are notated above the duration line
Duration letters will always appear directly above the note/fret number it represents the
duration for.  Duration letters with no fret number below them represent rests.  Multi-
bar rests are notated in the form Wxn, where n is the number of bars to rest for.  Low
melody durations appear below the staff

Tablature Legend
----------------
 h   - hammer-on
 p   - pull-off
 b   - bend
 pb  - pre-bend
 r   - bend release (if no number after the r, then release immediately)
 /\  - slide into or out of (from/to "nowhere")
 s   - legato slide
 S   - shift slide
 - natural harmonic
[n]  - artificial harmonic
n(n) - tapped harmonic
 ~   - vibrato
 tr  - trill
 T   - tap
 TP  - trem. picking
 PM  - palm muting
\n/  - tremolo bar dip; n = amount to dip
 \n  - tremolo bar down
 n/  - tremolo bar up
/n\  - tremolo bar inverted dip
 =   - hold bend; also acts as connecting device for hammers/pulls
 <> - volume swell (louder/softer)
 x   - on rhythm slash represents muted slash
 o   - on rhythm slash represents single note slash

Misc Legend
-----------
 |  - bar
||  - double bar
||o - repeat start
o|| - repeat end
*|  - double bar (ending)
 :  - bar (freetime)
 $  - Segno
 &  - Coda
Tempo markers -  = BPM(8/16=s8/s16), where s8 = swing 8ths, s16 = swing 16ths





Comments


Popular Rata Blanca tabs & chords
Porque Es Tan Dificil Amar Bass Tabs
Amo Del Camino Chords
Aria En Sol De La Suite 13 Tabs
Bajo Control Tabs
Ella Tabs
En Nombre De Dios? Tabs
La Leyenda Del Hada Y El Mago Tabs
Mujer Amante Tabs
Porque Es Tan Dificil Amar Tabs
Como Yo Nadie Te Ha Amado Ukulele


Song lyrics



↑ Back to top | Tablatures and chords are parodies/interpretations of the original songs. You may use it for private study, scholarship, research or language learning purposes only
© 2014 AZChords.com Contact us | Privacy policy | DMCA | Add/correct tabs | Request tabs | Top 50 tabs