>
 >
La Llave De La Puerta Secreta 1

La Llave De La Puerta Secreta 1 Guitar Tabs

Rata Blanca - La Llave De La Puerta Secreta 1 chords, tabs, tablatures, lyrics

Guitar lessons | Add/correct | Request | Top 50 tabs Artists:  A B C D E F G H I J K L M N O P Q R S T U V W X Y Z 0-9

La Llave De La Puerta Secreta 1 Guitar Tabs – Rata Blanca

CD, Sheet music, Poster

Do you like La Llave De La Puerta Secreta 1? Share with your friends now
Bass TabsTabsTabs v2
-------------------------------------------------------------------------------
           La llave de la puerta secreta -  Rata Blanca
-------------------------------------------------------------------------------

Tuning:D#


INTRO:
(very, very fast)
e|-1713------131713-1512------121512-1310------101310-1713------131713--|
B|-----15--15-----------14--14-----------10--10-----------15--15--------|
G|-------14---------------15---------------10---------------14----------|
D|----------------------------------------------------------------------|
A|----------------------------------------------------------------------|
E|----------------------------------------------------------------------|

e|-1310------101310-128-----8128-107----7107-85---585-74---474-85---585-|
B|-----10--10----------10-10--------9--9-------5-5-----6-6-------7-7----|
G|-------10--------------9-----------10---------5-------7---------8-----|
D|----------------------------------------------------------------------|
A|----------------------------------------------------------------------|
E|----------------------------------------------------------------------|
                                                                bend
e|-128-----8128-1712------121712-118------8118-1712------121712-15------|
B|----10-10---------13--13----------10--10---------13--13---------------|
G|------9-------------14--------------11-------------14-----------------|
D|----------------------------------------------------------------------|
A|----------------------------------------------------------------------|
E|----------------------------------------------------------------------|

PRE-VERSE:
(All Palmute)
e|--------------------------------------------------------------------|
B|--------------------------------------------------------------------|
G|--------------------------------------------------------------------|
D|--------------------------------------------------------------------|
A|-------------------------555555555555555555888777-------------------|
E|-555555555555555555777888------------------------444444444444000000-|

e|--------------------------------------------------------------------|
B|--------------------------------------------------------------------|
G|--------------------------------------------------------------------|
D|--------------------------------------------------------------------|
A|--------------------------------------------------------------------|
E|-4444445555555555555555555553333333333333333333333331111111111111111|
                                    
e|---------------------------------|       
B|---------------------------------|
G|---------------------------------|AFTER
D|---------------------------------|THAT
A|---------------------------------|2 times
E|-11111111000000000000400500700400|

e|----------------------------------------------------------|
B|---4 times------------------------------------------------|
G|----------------------------------------------------------|
D|-----------------5----------------------------------------|
A|-----------------3-5--------------------------------------|
E|-3555-3555-3555----3--------------------------------------|

VERSE:
e|----------------------------------------------------------|
B|----------------------------------------------------------|
G|----------------------------------------------------------|
D|----------------------------------------------------------|
A|----------------------------------------------------------|
E|-555555555555555555555555555555555555555555555555---------|

e|----------------------------------------------------------|
B|----------------------------------------------------------|
G|----------------------------------------------------------|
D|-----------------------------------------5----------------|
A|-----------------------------------------3-5--------------|
E|-333333333333333333333333-3555-3555-3555---3--------------|

CHORUS:
                           first time
e|------------------------|-----------|-----------------------|
B|------------------------|-----------|-----------------------|
G|-------------5-/9-------|-7-/9-10---|-7-/9------------------|
D|-3-/7--2-/6--------5-/9-|---------2-|-----------------------|
A|-------------3-/7-------|-5-/7-8----|-5-/7------------------|
E|-1-/5--0-/4--------3-/7-|---------0-|------1---0--4---------|

The solo is to fast and i couldīnt figured it out

Outro:
e|-1713------131713-1512------121512-1310------101310--107----7107--|
B|-----15--15-----------14--14-----------12--12-----------9--9------|
G|-------14---------------15---------------13--------------10-------|
D|------------------------------------------------------------------|
A|------------------------------------------------------------------|
E|------------------------------------------------------------------|

e|-85---585-128-----8128-128-----8128-1712------121712--201917151917|
B|---5-5-------10-10--------10-10---------13--13--------------------|
G|----5----------9------------9-------------14----------------------|
D|------------------------------------------------------------------|
A|------------------------------------------------------------------|
E|------------------------------------------------------------------|
                                                                       b
e|-1513171513121513121312----121312----12--------------------------------|
B|-----------------------1513------1513--1513121513121312----121312------|
G|-------------------------------------------------------1414------14-12-|
D|-----------------------------------------------------------------------|
A|-----------------------------------------------------------------------|
E|-----------------------------------------------------------------------|
                              b
e|-------1013----------------15-----------------------------------|
B|-----------13-----------------------------------------------|
G|-------------16---------------------------------------------|
D|---------------1414-------------------------------------------|
A|-------------------151412---------------------------------------|
E|--\-/-------------------------------------------------------|





Comments


Popular Rata Blanca tabs & chords
La Llave De La Puerta Secreta Bass Tabs
Porque Es Tan Dificil Amar Bass Tabs
Aun Estas En Mis Suieos Chords
Abeja Reina Tabs
La Leyenda Del Hada Y El Mago 1 Tabs
Lluvia Purpura Tabs
Mujer Amante 4 Tabs
Noche Sin Sueos Tabs
Volviendo A Casa (Intro) Tabs
Fantasma Azul Ukulele


Song lyrics



↑ Back to top | Tablatures and chords are parodies/interpretations of the original songs. You may use it for private study, scholarship, research or language learning purposes only
© 2014 AZChords.com Contact us | Privacy policy | DMCA | Add/correct tabs | Request tabs | Top 50 tabs