>
 >
La Llave De La Puerta Secreta

La Llave De La Puerta Secreta Guitar Tabs

Rata Blanca - La Llave De La Puerta Secreta chords, tabs, tablatures, lyrics

Guitar lessons | Add/correct | Request | Top 50 tabs Artists:  A B C D E F G H I J K L M N O P Q R S T U V W X Y Z 0-9

La Llave De La Puerta Secreta Guitar Tabs – Rata Blanca

CD, Sheet music, Poster

Do you like La Llave De La Puerta Secreta? Share with your friends now
Bass TabsTabsTabs v2

LA LLAVE DE LA PUERTA SECRETA
As recorded by Rata Blanca
(From the 2005 Album LA LLAVE DE LA PUERTA SECRETA)

        

Words and Music by Walter Giardino

Gtr I (Eb Ab Db Gb Bb Eb) - 'Gtr 1 (dist.)'

 Intro
  Moderately Fast Q=175
  N.C.(Dm)                (Am7/C)
 4/4
  Gtr I
   S  S  S  S  S  S  S  S  S  S  S  S  S  S  S  S
|-17p13----------13-17p13-15p12----------12-15p12-|
|-------15----15----------------13----13----------|
|----------14----------------------14-------------|
|-------------------------------------------------|
|-------------------------------------------------|
|-------------------------------------------------|


     (Dm)
   a  S  S  S  S  S  S  S  S  S  S  S  S  S  S  S  S
|-10h13p10----------10-13p10-17p13----------13-17p13-|
|----------10----10----------------15----15----------|
|-------------10----------------------14-------------|
|----------------------------------------------------|
|----------------------------------------------------|
|----------------------------------------------------|


  (G#7)                    (Am)
   S  S  S  S  S  S  S  S a  S S  S S  S S  S S
|-13p10----------10-13p10-8h12p8---------8-12p8-|
|-------12----12-----------------10---10--------|
|----------13-----------------------9-----------|
|-----------------------------------------------|
|-----------------------------------------------|
|-----------------------------------------------|


  (B7)                (Am/C)
   S S S  S S S  S S a S S S S S S S S
|-10p7--------7-10p7-5h8p5-------5-8-5-|
|------9----9--------------5---5-------|
|--------10------------------5---------|
|--------------------------------------|
|--------------------------------------|
|--------------------------------------|


  (Eb7)          (F#7)
  S S S S S S S S  S S  S  S  S S  S S
|-8p5-------5-8p5-11p8----------8-11p8-|
|-----7---7------------10----10--------|
|-------8-----------------11-----------|
|--------------------------------------|
|--------------------------------------|
|--------------------------------------|


  (Am)                (Am/C)
   S S  S S  S S  S S  S  S  S  S  S  S  S  S
|-12p8---------8-12p8-17p12----------12-17p12-|
|------10---10--------------13----13----------|
|---------9--------------------14-------------|
|---------------------------------------------|
|---------------------------------------------|
|---------------------------------------------|


     (Eb7)                  (F#7)
   a  S  S  S  S  S  S  S  S  S  S  S  S  S  S  S  S
|-11h14p11----------11-14p11-17p14----------14-17p14-|
|----------13----13----------------16----16----------|
|-------------14----------------------17-------------|
|----------------------------------------------------|
|----------------------------------------------------|
|----------------------------------------------------|


  (Esus4)
              ~~~~~~~~~~~~~~
   H         +H        +W
|-16b17=====(16)----|-(16)r----|
|-------------------|----------|
|-------------------|----------|
|-------------------|----------|
|-------------------|----------|
|-------------------|----------|


  (E)
  \3.5
  W             +W
|-------------|------------|
|-------------|------------|
|-------------|------------|
|-------------|------------|
|-------------|------------|
|-0-----------|-(0)--------|


   Pre-Verse
    (Am)
    PM----------------------------------------------|
    |-3-| |-3-| |-3-| |-3-|   |-3-| |-3-| |-3-| |-3-|
    E E E E E E E E E E E E   E E E E E E E E E E E E
||--------------------------|--------------------------|
||o-------------------------|--------------------------|
||--------------------------|--------------------------|
||--------------------------|--------------------------|
||o-------------------------|--------------------------|
||--5-5-5-5-5-5-5-5-5-5-5-5-|-5-5-5-5-5-5-7-7-7-8-8-8--|


  (Dm)                                                (G#)
  PM------------------------------------------------------------------------|
  |-3-| |-3-| |-3-| |-3-|   |-3-| |-3-| |-3-| |-3-|   |-3-| |-3-| |-3-| |-3-|
  E E E E E E E E E E E E   E E E E E E E E E E E E   E E E E E E E E E E E E
|-------------------------|-------------------------|--------------------------|
|-------------------------|-------------------------|--------------------------|
|-------------------------|-------------------------|--------------------------|
|-------------------------|-------------------------|--------------------------|
|-5-5-5-5-5-5-5-5-5-5-5-5-|-5-5-5-5-5-5-8-8-8-7-7-7-|--------------------------|
|-------------------------|-------------------------|-4-4-4-4-4-4-4-4-4-4-4-4--|


  (E)                       (Am)
  PM------------------------------------------------------------------------|
  |-3-| |-3-| |-3-| |-3-|   |-3-| |-3-| |-3-| |-3-|   |-3-| |-3-| |-3-| |-3-|
  E E E E E E E E E E E E   E E E E E E E E E E E E   E E E E E E E E E E E E
|-------------------------|-------------------------|--------------------------|
|-------------------------|-------------------------|--------------------------|
|-------------------------|-------------------------|--------------------------|
|-------------------------|-------------------------|--------------------------|
|-------------------------|-------------------------|--------------------------|
|-0-0-0-0-0-0-4-4-4-4-4-4-|-5-5-5-5-5-5-5-5-5-5-5-5-|-5-5-5-5-5-5-5-5-5-5-5-5--|


  (G)                                                 (F)
  PM------------------------------------------------------------------------|
  |-3-| |-3-| |-3-| |-3-|   |-3-| |-3-| |-3-| |-3-|   |-3-| |-3-| |-3-| |-3-|
  E E E E E E E E E E E E   E E E E E E E E E E E E   E E E E E E E E E E E E
|-------------------------|-------------------------|--------------------------|
|-------------------------|-------------------------|--------------------------|
|-------------------------|-------------------------|--------------------------|
|-------------------------|-------------------------|--------------------------|
|-------------------------|-------------------------|--------------------------|
|-3-3-3-3-3-3-3-3-3-3-3-3-|-3-3-3-3-3-3-3-3-3-3-3-3-|-1-1-1-1-1-1-1-1-1-1-1-1--|


                            (E)
  PM-------------------------------------------------
  |-3-| |-3-| |-3-| |-3-|   |-3-| |-3-| |-3-| |-3-|
  E E E E E E E E E E E E   E E E E E E E E E E E E
|-------------------------|-------------------------|
|-------------------------|-------------------------|
|-------------------------|-------------------------|
|-------------------------|-------------------------|
|-------------------------|-------------------------|
|-1-1-1-1-1-1-1-1-1-1-1-1-|-0-0-0-0-0-0-0-0-0-0-0-0-|


 -----------------------|
  |-3-| |-3-| |-3-| |-3-|
  E E E E E E E E E E E E
|---------------------------||
|--------------------------o||
|---------------------------||
|---------------------------||
|--------------------------o||
|-4-0-0-5-0-0-7-0-0-4-0-0---||


      N.C.(A)                    C5 G5
    |-3-|    |-3-|      |-3-|
    E E E Q  E E E Q    E E E Q  Q  Q
||--------------------|----------------|
||o-------------------|----------------|
||--------------------|----------------|
||--------------------|----------5-----|
||o-------------------|----------3--5--|
||--3h5-5-5--3h5-5-5--|-3h5-5-5-----3--|


  N.C.(A)                      C5 G5
  |-3-|    |-3-|      |-3-|
  E E E Q  E E E Q    E E E Q  Q  Q
|-------------------|-------------------||
|-------------------|------------------o||
|-------------------|-------------------||
|-------------------|----------5--------||
|-------------------|----------3--5----o||
|-3h5-5-5--3h5-5-5--|-3h5-5-5-----3-----||


   Verse
    $
    $$
    (Am)
    PM-----------------------
    |-3-| |-3-| |-3-| |-3-|
    E E E E E E E E E E E E
||--------------------------|
||o-------------------------|
||--------------------------|
||--------------------------|
||o-------------------------|
||--5-5-5-5-5-5-5-5-5-5-5-5-|


 -------------------------------------------------|
  |-3-| |-3-| |-3-| |-3-|   |-3-| |-3-| |-3-| |-3-|
  E E E E E E E E E E E E   E E E E E E E E E E E E
|-------------------------|-------------------------|
|-------------------------|-------------------------|
|-------------------------|-------------------------|
|-------------------------|-------------------------|
|-------------------------|-------------------------|
|-5-5-5-5-5-5-5-5-5-5-5-5-|-5-5-5-5-5-5-5-5-5-5-5-5-|


                            (G)
  PM------------------------------------------------------------------------|
  |-3-| |-3-| |-3-| |-3-|   |-3-| |-3-| |-3-| |-3-|   |-3-| |-3-| |-3-| |-3-|
  E E E E E E E E E E E E   E E E E E E E E E E E E   E E E E E E E E E E E E
|-------------------------|-------------------------|--------------------------|
|-------------------------|-------------------------|--------------------------|
|-------------------------|-------------------------|--------------------------|
|-------------------------|-------------------------|--------------------------|
|-------------------------|-------------------------|--------------------------|
|-5-5-5-5-5-5-5-5-5-5-5-5-|-3-3-3-3-3-3-3-3-3-3-3-3-|-3-3-3-3-3-3-3-3-3-3-3-3--|


  1.
    N.C.(A)                    C5 G5
  PM----|
  |-3-|    |-3-|      |-3-|
  E E E Q  E E E Q    E E E Q  Q  Q
|-------------------|-----------------||
|-------------------|----------------o||
|-------------------|-----------------||
|-------------------|----------5------||
|-------------------|----------3--5--o||
|-3h5-5-5--3h5-5-5--|-3h5-5-5-----3---||


  2.
                                  To Dbl. Coda
  (Am)                                        (G)
  PM----------------------------------------|
  |-3-| |-3-| |-3-| |-3-|   |-3-| |-3-| |-3-|
  E E E E E E E E E E E E   E E E E E E E E E Q
|-------------------------|------------------------||
|-------------------------|------------------------||
|-------------------------|------------------------||
|-------------------------|------------------------||
|-------------------------|------------------------||
|-5-5-5-5-5-5-5-5-5-5-5-5-|-5-5-5-5-5-5-5-5-5-3----||


   Chorus
    F            E            C            G
    H     H      H     H      H     H       H     H
||-------------|------------|------------|-------------|
||o------------|------------|------------|-------------|
||-------------|------------|-5----/9----|-------------|
||-------/7----|------/6----|------------|-/5----/9----|
||o------------|------------|-3----/7----|-------------|
||--1----/5----|-0----/4----|------------|-/3----/7----|


  1.
  Dm                        E
  H     H        W          W          +W
|------------|------------|----------|---------||
|------------|------------|----------|--------o||
|-7----/9----|-/10--------|----------|---------||
|------------|------------|----------|---------||
|-5----/7----|--/8--------|-7--------|-(7)----o||
|------------|------------|-0--------|-(0)-----||


                         Interlude
  2.
  F          E            (Am)
                          PM----------------------------------------------|
                          |-3-| |-3-| |-3-| |-3-|   |-3-| |-3-| |-3-| |-3-|
  W          H    H       E E E E E E E E E E E E   E E E E E E E E E E E E
|----------|-----------||-------------------------|--------------------------|
|----------|-----------||-------------------------|--------------------------|
|----------|-----------||-------------------------|--------------------------|
|----------|-----------||-------------------------|--------------------------|
|----------|-----------||-------------------------|--------------------------|
|-1--------|-0----4----||-5-5-5-5-5-5-5-5-5-5-5-5-|-5-5-5-5-5-5-7-7-7-8-8-8--|


  (Dm)                                                (G#)
  PM------------------------------------------------------------------------|
  |-3-| |-3-| |-3-| |-3-|   |-3-| |-3-| |-3-| |-3-|   |-3-| |-3-| |-3-| |-3-|
  E E E E E E E E E E E E   E E E E E E E E E E E E   E E E E E E E E E E E E
|-------------------------|-------------------------|--------------------------|
|-------------------------|-------------------------|--------------------------|
|-------------------------|-------------------------|--------------------------|
|-------------------------|-------------------------|--------------------------|
|-5-5-5-5-5-5-5-5-5-5-5-5-|-5-5-5-5-5-5-8-8-8-7-7-7-|--------------------------|
|-------------------------|-------------------------|-4-4-4-4-4-4-4-4-4-4-4-4--|


  (E)                       (Am)
  PM------------------------------------------------------------------------|
  |-3-| |-3-| |-3-| |-3-|   |-3-| |-3-| |-3-| |-3-|   |-3-| |-3-| |-3-| |-3-|
  E E E E E E E E E E E E   E E E E E E E E E E E E   E E E E E E E E E E E E
|-------------------------|-------------------------|--------------------------|
|-------------------------|-------------------------|--------------------------|
|-------------------------|-------------------------|--------------------------|
|-------------------------|-------------------------|--------------------------|
|-------------------------|-------------------------|--------------------------|
|-0-0-0-0-0-0-4-4-4-4-4-4-|-5-5-5-5-5-5-5-5-5-5-5-5-|-5-5-5-5-5-5-5-5-5-5-5-5--|


  (G)                                                 (F)
  PM------------------------------------------------------------------------|
  |-3-| |-3-| |-3-| |-3-|   |-3-| |-3-| |-3-| |-3-|   |-3-| |-3-| |-3-| |-3-|
  E E E E E E E E E E E E   E E E E E E E E E E E E   E E E E E E E E E E E E
|-------------------------|-------------------------|--------------------------|
|-------------------------|-------------------------|--------------------------|
|-------------------------|-------------------------|--------------------------|
|-------------------------|-------------------------|--------------------------|
|-------------------------|-------------------------|--------------------------|
|-3-3-3-3-3-3-3-3-3-3-3-3-|-3-3-3-3-3-3-3-3-3-3-3-3-|-1-1-1-1-1-1-1-1-1-1-1-1--|


                            (E)
  PM-------------------------------------------------
  |-3-| |-3-| |-3-| |-3-|   |-3-| |-3-| |-3-| |-3-|
  E E E E E E E E E E E E   E E E E E E E E E E E E
|-------------------------|-------------------------|
|-------------------------|-------------------------|
|-------------------------|-------------------------|
|-------------------------|-------------------------|
|-------------------------|-------------------------|
|-1-1-1-1-1-1-1-1-1-1-1-1-|-0-0-0-0-0-0-0-0-0-0-0-0-|


            D.S. al Coda
            D.S. al Coda
 -----------------------|
  |-3-| |-3-| |-3-| |-3-|
  E E E E E E E E E E E E
|--------------------------||
|--------------------------||
|--------------------------||
|--------------------------||
|--------------------------||
|-4-0-0-5-0-0-7-0-0-4-0-0--||


   Bridge
    &
    (Dm)                    (Am7/C)
     S  S  S  S  S  S  S  S  S  S  S  S  S  S  S  S
||--17p13----------13-17p13-15p12----------12-15p12-|
||o-------15----15----------------13----13----------|
||-----------14----------------------14-------------|
||--------------------------------------------------|
||o-------------------------------------------------|
||--------------------------------------------------|


     (Dm)
   a  S  S  S  S  S  S  S  S  S  S  S  S  S  S  S  S
|-10h13p10----------10-13p10-17p13----------13-17p13-|
|----------10----10----------------15----15----------|
|-------------10----------------------14-------------|
|----------------------------------------------------|
|----------------------------------------------------|
|----------------------------------------------------|


  (G#7)                    (Am)
   S  S  S  S  S  S  S  S a  S S  S S  S S  S S
|-13p10----------10-13p10-8h12p8---------8-12p8-|
|-------12----12-----------------10---10--------|
|----------13-----------------------9-----------|
|-----------------------------------------------|
|-----------------------------------------------|
|-----------------------------------------------|


  (B7)                (Am/C)
   S S S  S S S  S S a S S S S S S S S
|-10p7--------7-10p7-5h8p5-------5-8-5-|
|------9----9--------------5---5-------|
|--------10------------------5---------|
|--------------------------------------|
|--------------------------------------|
|--------------------------------------|


  (Eb7)          (F#7)
  S S S S S S S S  S S  S  S  S S  S S
|-8p5-------5-8p5-11p8----------8-11p8-|
|-----7---7------------10----10--------|
|-------8-----------------11-----------|
|--------------------------------------|
|--------------------------------------|
|--------------------------------------|


  (Am)                (Am/C)
   S S  S S  S S  S S  S  S  S  S  S  S  S  S
|-12p8---------8-12p8-17p12----------12-17p12-|
|------10---10--------------13----13----------|
|---------9--------------------14-------------|
|---------------------------------------------|
|---------------------------------------------|
|---------------------------------------------|


                                                      1.
     (Eb7)                  (F#7)                    (E)
                                                                 ~~
   a  S  S  S  S  S  S  S  S  S  S  S  S  S  S  S  S    H        H
|-11h14p11----------11-14p11-17p14----------14-17p14-|-16b17----16-----||
|----------13----13----------------16----16----------|----------------o||
|-------------14----------------------17-------------|-----------------||
|----------------------------------------------------|-----------------||
|----------------------------------------------------|----------------o||
|----------------------------------------------------|-----------------||


  2.
  (F7/E)                    (D7/E)
   S  S  S  S  S  S  S  S  a  S  S  S  S  S  S  S  S
|-16p13----------13h16p13-10h13p10----------10-13p10-|
|-------15----15-------------------12----12----------|
|----------16-------------------------13-------------|
|----------------------------------------------------|
|----------------------------------------------------|
|----------------------------------------------------|


  (F7/E)                 (E)
                                    ~~~~~
   S  S  S  S  S  S  S  S  Q       +Q
|-16p13----------13-16p13----------------||
|-------15----15----------15b17===(15)r--||
|----------16----------------------------||
|----------------------------------------||
|----------------------------------------||
|----------------------------------------||


 Guitar Solo
  N.C.(F#m)
               |-----5-----|  |-----5-----|  |-----5-----|
   S  S  S  S  S  S  S  S  S  S  S  S  S  S  S  S  S  S  S
|-17-14-14-16-17-14-19-14-17-14-14-16-17-14-16-17-19-16-19-|
|----------------------------------------------------------|
|----------------------------------------------------------|
|----------------------------------------------------------|
|----------------------------------------------------------|
|----------------------------------------------------------|


   |------6-------|        |--3--|
   S  S  S  S  S  S  S  S  S  S  S  S  S  T  T  T  T  S  S  S  S
|-21-19-21-17----17-19-21-19-17----17-19-21p19h21p17----17-19-21---|
|-------------21----------------21-------------------21------------|
|------------------------------------------------------------------|
|------------------------------------------------------------------|
|------------------------------------------------------------------|
|------------------------------------------------------------------|


            |--3--|                    |--3--|  |--3--|
   S  S  S  T  T  T  S  S  S  S  S  S  S  S  S  S  S  S  S  S
|-19-17-19p17p16s14-17-16-14----16-14-------14----------12----|
|----------------------------17-------17p15----17-15-14----15-|
|-------------------------------------------------------------|
|-------------------------------------------------------------|
|-------------------------------------------------------------|
|-------------------------------------------------------------|


   S  S  S  S  S  S  S  S  S  S  S  S  S  S  S  S
|-------------------------------------10-----------|
|-14-12-15-12-14-12-10-12-14-12-10-12----14-12-10--|
|--------------------------------------------------|
|--------------------------------------------------|
|--------------------------------------------------|
|--------------------------------------------------|


  (D)
                     |---5----| |---5----|
   S S S S  S S S S  S S S S  S S S  S S S
|----------------------7-9-7----7-9-10-9-7-|
|-10-7---7-10-7---7-10-------10------------|
|------9--------9--------------------------|
|------------------------------------------|
|------------------------------------------|
|------------------------------------------|


                         |------6------|  |-----5-----|
   S S S S T T  T T S S  S S  S  S  S  S  S  S  S  S  S
|-----------------7-9-7------------10-12-14-12-10----12-|
|-10-9-7---7-9-10-------10-9-10-12----------------14----|
|--------9----------------------------------------------|
|-------------------------------------------------------|
|-------------------------------------------------------|
|-------------------------------------------------------|


                                      /1\
                                |-3-|
   S  S  S  S  S  S  S  S S  S  S S S S   S S S
|-10----10----------------9---------------------|
|----12----12-14-12-10-12---10-10p9p7-----------|
|-------------------------------------9p==7-9p7-|
|-----------------------------------------------|
|-----------------------------------------------|
|-----------------------------------------------|


              \0.5/ \0.5/ \0.5/
  Q      +Q   E     E     Q
|--------------------------------|
|--------------------------------|
|-9b11===(9)r=7h====9p====7------|
|--------------------------------|
|--------------------------------|
|--------------------------------|


  (F#m)
   ~~~~~~~
   Q  +E  E  Q      Q        Q       Q       Q       Q
|-------------------------|-----------------14tr12----------|
|---------xs10tr9---------|-14tr12------------------14tr12--|
|-h6--(6)----------11tr9--|---------14tr13------------------|
|-------------------------|---------------------------------|
|-------------------------|---------------------------------|
|-------------------------|---------------------------------|


   Q       Q       Q      Q
|-------------------------------|
|---------14tr12--10tr9---------|
|-14tr13-----------------11tr9--|
|-------------------------------|
|-------------------------------|
|-------------------------------|


                            (D)
                     ~~               ~~
   |------3-------|
   q  Q      +E   E  H       H        H
|-------------------------|-14b16----14----|
|-12-12pb14r(12)p10-------|----------------|
|-------------------11----|----------------|
|-------------------------|----------------|
|-------------------------|----------------|
|-------------------------|----------------|


               |-----5-----|
   S  S  S  S  S  S  S  S  S  Q      Q
|-14-14-14-16-14-16-14----------------------|
|----------------------17-17-17b19--17b19===|
|-------------------------------------------|
|-------------------------------------------|
|-------------------------------------------|
|-------------------------------------------|


    |---3---|                |---3----|  |---3----|
   +E    E  E  S   S   S  S  E     E  E  E     E  E
|-------14-17-14------------------14----------------|
|-(17)r----------(15)-14-------------14-------------|
|------------------------16-16b18-------16b18-16-14-|
|---------------------------------------------------|
|---------------------------------------------------|
|---------------------------------------------------|


                                          (Am)
                              ~~~~                    ~~~~
   |--3--|  |-----3------|
   E  E  E  E      +E   +E   +Q     Q      H         +H
|--------------------------------------||-19b20=====(19)----|
|---------------------------------/17--||-------------------|
|----16-14-14b16==(14)r(14)-(14)-------||-------------------|
|-16-----------------------------------||-------------------|
|--------------------------------------||-------------------|
|--------------------------------------||-------------------|


    ~~~~~                                   ~~
                     |---3----|
   +H       Q       +E   +E   E    H        H
|-(19)r----19b20===(19)r(19)p17-|-19b20----19----|
|-------------------------------|----------------|
|-------------------------------|----------------|
|-------------------------------|----------------|
|-------------------------------|----------------|
|-------------------------------|----------------|


   |-----5-----|  |-----5-----|  |-----5-----|  |------6-------|
   S  S  S  S  S  S  S  S  S  S  S  S  S  S  S  S  S  S  S  S  S
|-20-19-17----19-17----19-20-19-17-19-17----17-19-20-19-17----19--|
|----------20-------20-------------------20----------------20-----|
|-----------------------------------------------------------------|
|-----------------------------------------------------------------|
|-----------------------------------------------------------------|
|-----------------------------------------------------------------|


   |-----5-----|  |-----5-----|  |-----5-----|  |-----5-----|
   S  S  S  S  S  S  S  S  S  S  S  S  S  S  S  S  S  S  S  S
|-17----19-20-19-17-15-19-17-15-13-17-15-13-15-13-12-13-12----|
|----20----------------------------------------------------15-|
|-------------------------------------------------------------|
|-------------------------------------------------------------|
|-------------------------------------------------------------|
|-------------------------------------------------------------|


   |-----5-----|  |-----5-----|  |-----5-----|  |------6-------|
   S  S  S  S  S  S  S  S  S  S  S  S  S  S  S  S  S  S  S  S  S
|-------12---------------------------------------------------------|
|-13-12----13-12-15-13-12-10-13-12-10----10-12-13-10-10-13-13-15---|
|-------------------------------------13---------------------------|
|------------------------------------------------------------------|
|------------------------------------------------------------------|
|------------------------------------------------------------------|


   |------6-------|  |------6-------|  |------6-------|
   S  S  S  S  S  S  S  S  S  S  S  S  S  S  S  S  S  S  S  S  S  S
|----------12----------13----------15----------17-------17-19----20p|
|-12-13-15----13-15-17----15-17-18----17-18-20----18-20-------20----|
|-------------------------------------------------------------------|
|-------------------------------------------------------------------|
|-------------------------------------------------------------------|
|-------------------------------------------------------------------|


                                            ~~~~
   |-----3-----|  |---3----|     |3-|
   S  S  E     E  E     E  E     E  Q      +Q
|-17----------15-------15-------15---------------|
|----20-18b20----18b20----18b20----18b20==(18)---|
|------------------------------------------------|
|------------------------------------------------|
|------------------------------------------------|
|------------------------------------------------|


  (Am)
                           ~~~
                |--3--|              |---3---|
   +H        a  Q  Q  Q    H.       +E    E  E
|-----------12s17p12----|----------------13p12-|
|-(18)r\-------------13-|----------------------|
|-----------------------|-14-------(14)\-------|
|-----------------------|----------------------|
|-----------------------|----------------------|
|-----------------------|----------------------|


  (G)
   |--3--|  |--3--|  |--3--|  |--3--|
   E  E  E  E  E  E  E  E  E  E  E  E
|-15p13p12----13p12-------12-----------|
|----------15-------15p13----15p13p12--|
|--------------------------------------|
|--------------------------------------|
|--------------------------------------|
|--------------------------------------|


                       (Dm)
                ~~
                                              |--3--|
   Q      +Q    H        Q       +E   +E      q  q  q
|--------------------|-----------------------17-19-20-|
|--------------------|-/20b22===(20)r(20)b22----------|
|-14b16r=(14)--12----|--------------------------------|
|--------------------|--------------------------------|
|--------------------|--------------------------------|
|--------------------|--------------------------------|


  (Eb)
                |----3-----|
   H        Q   E  E      +E
|-20b24r===19h=20-19b20==(19)r=|
|------------------------------|
|------------------------------|
|------------------------------|
|------------------------------|
|------------------------------|


  (E)
    |----3----|                                 |---3----|
   +E   E  S  S  S  S  S  S      +S   +S       +S   +S   S  S  S  S  S
|-(19)-20p19p17-16-19-20-19b20==(19)r(19)b20==(19)r(19)p17-16-19-20-19-|
|----------------------------------------------------------------------|
|----------------------------------------------------------------------|
|----------------------------------------------------------------------|
|----------------------------------------------------------------------|
|----------------------------------------------------------------------|


   |--3--|              |--3--|  |--3--|  |--------7--------|
   E  E  E  S  S  S  S  S  S  S  S  S  S  S  S  S  S  S  S  S
|-17-16----16--------------------------------------------------|
|-------18----18-17-18-15--------------------------------------|
|-------------------------17-16-14-14-16-17-16-14-13-14-13-----|
|----------------------------------------------------------15--|
|--------------------------------------------------------------|
|--------------------------------------------------------------|


                                      D.S.S. al Dbl. Coda
                                                    \3.5
   S  S  S  S  S  S  S  S  S  S  S  S  S  S  S  S   W
|-------------------------------------------------|----------||
|-------------------------------------------------|----------||
|-13----------13----------------------------------|----------||
|----15-14-15----15-14-12----------14-12----------|----------||
|-------------------------15-14-15-------15-14-12-|----------||
|-------------------------------------------------|-0--------||


   Chorus
    &&
    F            E            C            G
    H     H      H     H      H     H      H     H
||-------------|------------|------------|------------|
||o------------|------------|------------|------------|
||-------------|------------|-5----/9----|------------|
||-------------|------------|------------|-5----/9----|
||o------------|------------|-3----/7----|------------|
||--1----/5----|-0----/4----|------------|-3----/7----|


  1.
  Dm                        E
  H     H        W          W          +W
|------------|------------|----------|---------||
|------------|------------|----------|--------o||
|-7----/9----|-/10--------|----------|---------||
|------------|------------|----------|---------||
|-5----/7----|--/8--------|-7--------|-(7)----o||
|------------|------------|-0--------|-(0)-----||


                           Interlude
  2.
  F          E              (Am)
                            PM----------------------------------------------|
                            |-3-| |-3-| |-3-| |-3-|   |-3-| |-3-| |-3-| |-3-|
  W          Q  Q  H        E E E E E E E E E E E E   E E E E E E E E E E E E
|----------|------------||--------------------------|--------------------------|
|----------|------------||o-------------------------|--------------------------|
|----------|------------||--------------------------|--------------------------|
|----------|------------||--------------------------|--------------------------|
|----------|------------||o-------------------------|--------------------------|
|-1--------|-0----------||--5-5-5-5-5-5-5-5-5-5-5-5-|-5-5-5-5-5-5-7-7-7-8-8-8--|


  (Dm)                                                (G#)
  PM------------------------------------------------------------------------|
  |-3-| |-3-| |-3-| |-3-|   |-3-| |-3-| |-3-| |-3-|   |-3-| |-3-| |-3-| |-3-|
  E E E E E E E E E E E E   E E E E E E E E E E E E   E E E E E E E E E E E E
|-------------------------|-------------------------|--------------------------|
|-------------------------|-------------------------|--------------------------|
|-------------------------|-------------------------|--------------------------|
|-------------------------|-------------------------|--------------------------|
|-5-5-5-5-5-5-5-5-5-5-5-5-|-5-5-5-5-5-5-8-8-8-7-7-7-|--------------------------|
|-------------------------|-------------------------|-4-4-4-4-4-4-4-4-4-4-4-4--|


  (E)                       (Am)
  PM------------------------------------------------------------------------|
  |-3-| |-3-| |-3-| |-3-|   |-3-| |-3-| |-3-| |-3-|   |-3-| |-3-| |-3-| |-3-|
  E E E E E E E E E E E E   E E E E E E E E E E E E   E E E E E E E E E E E E
|-------------------------|-------------------------|--------------------------|
|-------------------------|-------------------------|--------------------------|
|-------------------------|-------------------------|--------------------------|
|-------------------------|-------------------------|--------------------------|
|-------------------------|-------------------------|--------------------------|
|-0-0-0-0-0-0-4-4-4-4-4-4-|-5-5-5-5-5-5-5-5-5-5-5-5-|-5-5-5-5-5-5-5-5-5-5-5-5--|


  (G)                                                 (F)
  PM------------------------------------------------------------------------|
  |-3-| |-3-| |-3-| |-3-|   |-3-| |-3-| |-3-| |-3-|   |-3-| |-3-| |-3-| |-3-|
  E E E E E E E E E E E E   E E E E E E E E E E E E   E E E E E E E E E E E E
|-------------------------|-------------------------|--------------------------|
|-------------------------|-------------------------|--------------------------|
|-------------------------|-------------------------|--------------------------|
|-------------------------|-------------------------|--------------------------|
|-------------------------|-------------------------|--------------------------|
|-3-3-3-3-3-3-3-3-3-3-3-3-|-3-3-3-3-3-3-3-3-3-3-3-3-|-1-1-1-1-1-1-1-1-1-1-1-1--|


                            (E)
  PM-------------------------------------------------
  |-3-| |-3-| |-3-| |-3-|   |-3-| |-3-| |-3-| |-3-|
  E E E E E E E E E E E E   E E E E E E E E E E E E
|-------------------------|-------------------------|
|-------------------------|-------------------------|
|-------------------------|-------------------------|
|-------------------------|-------------------------|
|-------------------------|-------------------------|
|-1-1-1-1-1-1-1-1-1-1-1-1-|-0-0-0-0-0-0-0-0-0-0-0-0-|


 -----------------------|
  |-3-| |-3-| |-3-| |-3-|
  E E E E E E E E E E E E
|---------------------------||
|--------------------------o||
|---------------------------||
|---------------------------||
|--------------------------o||
|-4-0-0-5-0-0-7-0-0-4-0-0---||


 Outro
  (Dm)                    (Am7/C)
 4/4
   S  S  S  S  S  S  S  S  S  S  S  S  S  S  S  S
|-17p13----------13-17p13-15p12----------12-15p12-|
|-------15----15----------------13----13----------|
|----------14----------------------14-------------|
|-------------------------------------------------|
|-------------------------------------------------|
|-------------------------------------------------|


  (D7)                     (G#7)
   S  S  S  S  S  S  S  S a  S S S  S S S  S S
|-13p10----------10-13p10-7h10p7--------7-10p7-|
|-------12----12-----------------9----9--------|
|----------13----------------------10----------|
|----------------------------------------------|
|----------------------------------------------|
|----------------------------------------------|


  (Am)
  S S S S S S S S  S S  S S  S S  S S
|-8p5-------5-8-5-12-8---------8-12-8-|
|-----5---5------------10---10--------|
|-------5-----------------9-----------|
|-------------------------------------|
|-------------------------------------|
|-------------------------------------|


   S S  S S  S S  S S  S  S  S  S  S  S  S  S
|-12-8---------8-12-8S17-12----------12-17-12-|
|------10---10--------------13----13----------|
|---------9--------------------14-------------|
|---------------------------------------------|
|---------------------------------------------|
|---------------------------------------------|


                |-----5-----|  |--3--|  |--3--|  |------6-------|
    S  S  S  S  S  S  S  S  S  S  S  S  S  S  S  S  S  S  S  S  S
|-/20-19-17-15-19-17-15-13-17-15-13-12-15-13-12-13-12-------12h13p|
|-----------------------------------------------------15-13-------|
|-----------------------------------------------------------------|
|-----------------------------------------------------------------|
|-----------------------------------------------------------------|
|-----------------------------------------------------------------|


                                 |--3--|        |--3--|
   S  S  S  S  S  S  S  S  S  S  S  S  S  S  S  S  S  S
|-12p10----12-10-------10--------------------------------|
|-------13-------13-12----13-12-13p12p10-10-12h13p12p10--|
|--------------------------------------------------------|
|--------------------------------------------------------|
|--------------------------------------------------------|
|--------------------------------------------------------|


  Am
              ~~~~~~~~~~~~~~~~~~~~
   H         +H        +Q    +E   E  Q    a  E.  S
|-------------------:--------------------10s13-----:
|-------------------:---------------------------13-:
|-12b14=====(12)----:-(12)--(12)r------------------:
|-------------------:------------------------------:
|-------------------:-------------x/---------------:
|-------------------:----------------x\------------:


                        ~~          ~~~~~~~~~~~~
         |--3--|
   S  S  S  S  S  S  S  E  Q       +Q      +H      H
|---------------------------------------:---------------*|
|-13----------------------20b22===(20)--:-(20)r---------*|
|----14-14------------------------------:---------------*|
|----------14-14------------------------:---------------*|
|----------------15-14-12---------------:---------------*|
|---------------------------------------:---------------*|



Duration Legend
---------------
W - whole; H - half; Q - quarter; E - 8th; S - 16th; T - 32nd; X - 64th; a - acciaccatura
+ - note tied to previous; . - note dotted; .. - note double dotted
Uncapitalized letters represent notes that are staccato (1/2 duration)
Irregular groupings are notated above the duration line
Duration letters will always appear directly above the note/fret number it represents the
duration for.  Duration letters with no fret number below them represent rests.  Multi-
bar rests are notated in the form Wxn, where n is the number of bars to rest for.  Low
melody durations appear below the staff

Tablature Legend
----------------
 h   - hammer-on
 p   - pull-off
 b   - bend
 pb  - pre-bend
 r   - bend release (if no number after the r, then release immediately)
 /\  - slide into or out of (from/to "nowhere")
 s   - legato slide
 S   - shift slide
 - natural harmonic
[n]  - artificial harmonic
n(n) - tapped harmonic
 ~   - vibrato
 tr  - trill
 T   - tap
 TP  - trem. picking
 PM  - palm muting
\n/  - tremolo bar dip; n = amount to dip
 \n  - tremolo bar down
 n/  - tremolo bar up
/n\  - tremolo bar inverted dip
 =   - hold bend; also acts as connecting device for hammers/pulls
 <> - volume swell (louder/softer)
 x   - on rhythm slash represents muted slash
 o   - on rhythm slash represents single note slash

Misc Legend
-----------
 |  - bar
||  - double bar
||o - repeat start
o|| - repeat end
*|  - double bar (ending)
 :  - bar (freetime)
 $  - Segno
 &  - Coda
Tempo markers -  = BPM(8/16=s8/s16), where s8 = swing 8ths, s16 = swing 16ths





Comments


Popular Rata Blanca tabs & chords
Los Ojos Del Dragon Bass Tabs
Volviendo A Casa Bass Tabs
Mujer Amante 2 Chords
Angel Tabs
Bajo Control Tabs
La Cancion Del Guerrero Tabs
La Otra Cara De La Moneda Tabs
Rompe El Hechizo Tabs
SinfoníA FantáStica Tabs
Aun Estas En Mis Suieos Ukulele


Song lyrics



↑ Back to top | Tablatures and chords are parodies/interpretations of the original songs. You may use it for private study, scholarship, research or language learning purposes only
© 2014 AZChords.com Contact us | Privacy policy | DMCA | Add/correct tabs | Request tabs | Top 50 tabs