» » »

Arrested In Shanghai Bass tabs (ver.1)

Artists:  A B C D E F G H I J K L M N O P Q R S T U V W X Y Z # 

Arrested In Shanghai Bass tabs (ver.1)

Rancid
Rating:
4/5 (1 vote)

Hard to play? Try these video lessons and learn fast.
                G|----------------------------------------------------------------------|
D|----------------------------------------------------------------------|
A|---0---------------------------42----0------------------------------0-|
E|--------0----0--2----2--0--4-----2--------0----0--2----2--0-0-0-4-----|

G|---------------------------------------------------|
D|---------------------------------------------------|
A|------4-4-2-2-2-2---------4-4-2-2-2-2--------------|
E|-0-0-0-2-------4-4-2-0-0-0-2-------4-4-2-0-0-0-2-4-|

G|----------------------------------------------------------------------|
D|----------------------------------------------------------------------|
A|---0--------------------------------0-------------------------------0-|
E|--------0----0--2----2--0---0--4----------0----0--2----2--0-0-0-4-----|
            
Hard to play? Try these video lessons and learn fast. | Correct




comments powered by Disqus
↑ Back to top | Tablatures and chords are parodies/interpretations of the original songs. You may use it for private study, scholarship, research or language learning purposes only