» » »

Arrested In Shanghai Tabs (ver.3)

Artists:  A B C D E F G H I J K L M N O P Q R S T U V W X Y Z # 

Arrested In Shanghai Tabs (ver.3)

Rancid
Rating:
4/5 (2 votes)

Hard to play? Try these video lessons and learn fast.
                
E---5--4--2--2--2--2/4--2---|
B---------------------------|
G---------------------------|
D---------------------------|  x6
A---------------------------|
E---------------------------|

Piano and singing come in...

E---5--4--2-2-2-2/4--2---|
B------------------------|
G------------------------|
D------------------------|  x3
A------------------------|
E------------------------|

Piano and singing...


E---5--4--2-2-2-2/4--2---|
B------------------------|
G------------------------|
D------------------------|  x2
A------------------------|
E------------------------|


Piano and singing...

[Chorus]

E------------------------------|
B------------------------------|
G--9999---6666---4-4-4-4-4-4-4-|
D--9999---6666---4-4-4-4-4-4-4-| x5
A--7777---4444---2-2-2-2-2-2-2-|
E------------------------------|

[[Last Verse]]

Bridge (Distortion)

E--5--4---2-2--4--|
B--5--5---2-2--5--|
G--6--4---4-4--4--|
D-----------------|  x9
A-----------------|
E-----------------|


E---5--4--2-2-2-2/4--2---|
B------------------------|
G------------------------| x7
D------------------------|
A------------------------|
E------------------------|

Piano

[[Please let me know that this is my first tab.
  So please let me know if there is any corrections...]]
            
Hard to play? Try these video lessons and learn fast. | Correct




comments powered by Disqus
↑ Back to top | Tablatures and chords are parodies/interpretations of the original songs. You may use it for private study, scholarship, research or language learning purposes only