>
 >
Olympia WA

Olympia WA Guitar Tabs

Rancid - Olympia WA chords, tabs, tablatures, lyrics

Guitar lessons | Add/correct | Request | Top 50 tabs Artists:  A B C D E F G H I J K L M N O P Q R S T U V W X Y Z 0-9

Olympia WA Guitar Tabs – Rancid

CD, Sheet music, Poster

Do you like Olympia WA? Share with your friends now
TabsTabs v2Tabs v3
Thats a great song, not only to hear, also to play!

I think it's not that bad for a first half tab ;-)

Listen for the strumming and the other things to the song, and if you got good sounding corrections, e-mail me!

Chords: 

G C D 
e:------------------| 
B:------------------| 
G:--------5----7----| 
D:---5----5----7----| 
A:---5----3----5----| 
E:---3--------------| 

Intro:

E:-------------------------------------------------------------------------------------------------------------------------------|
A:-------------------------------------------------------------------------------------------------------------------------------|
D:-------------------------------------------------------------------------------------------------------------------------------|
G:-------------------------------------------------------------------------------------------------------------------------------|
B:-0-0-1-3-3-1-0-3-3-1-0---0-0-0-1---0-0-1-3-3-1-0-3-3-1-0---0-0-0-1---0-0-1-3-3-1-0-3-3-1-0---0-0-0-1--0-1-5-3-5-3-5-3-1-| (at the second time he plays it, play 1 und then slide up to 8)
E:-------------------------------------------------------------------------------------------------------------------------------|

G C 
Hanging out with Lars down on 6th street 
G 
He knew that I was in trouble 
D 
I was feeling much like the devil 
G 
There was something burning deep inside of me 
C 
Ran into three Puerto Ricans 
G 
These girls took us to the fun house 
D C G 
Where we played a lonely pinball machine 


Chorus: 
C D G C 
Hanging on the corner of 52nd and Broadway 
D G C 
Cars passing by but none of them seem to go my way 
D G C 
New York City well I wish I was on the highway 
G C D 
Ba-ack to Olympia 

G C 
I'm having a hard time understanding 
G 
It gets all too demanding 
D 
She all cold and I'm stranded 
G 
There was something burning deep inside of me 
C 
All I know it's four o'clock and 
G 
She ain't never showed up and 
D C G 
I watched a thousand people go home from work 


Chorus: 
C D G C 
Hanging on the corner of 52nd and Broadway 
D G C 
Cars passing by but none of them seem to go my way 
D G C 
New York City well I wish I was on the highway 
G C D 
Ba-ack to Olympia 


Solo: 
e|-3-3-3-3-3-8-8-8-8-8-------------------| 
B|-3-3-3-3-3-8-8-8-8-8-3-3-1-1-1-3-3-1---| 
G|-------------------------------------0-| 
D|---------------------------------------| 
A|---------------------------------------| 
E|---------------------------------------| 

repeat a couple times then play: 
e|-------------------------------------------| 
B|-3-3-3-1-----------1-1-1-1-333333333333333-| 
G|---------0-0-0-0-0-------------------------| 
D|-------------------------------------------| 
A|-------------------------------------------| 
E|-------------------------------------------| 

G C 
How many times will they take me 
C G D 
Before I go crazy before I lose everything 
D G 
There was something burning deep inside of me 
G C 
Ran into three Puerto Ricans 
C G 
These girls took us to the fun house 
D C G 
I don't wanna be alone again 


Chorus: 
C D G C 
Hanging on the corner of 52nd and Broadway 
D G C 
Cars passing by but none of them seem to go my way 
D G C 
New York City well I wish I was on the highway 
C D 
Ba-ack to Olympia 


Intro then: 
G 
e|-3(let ring)-| 
B|-3(let ring)-| 
G|-------------| 
D|-------------| 
A|-------------| 
E|-------------|





Comments


Popular Rancid tabs & chords
Crane Fist 2 Bass Tabs
Time Bomb 2 Bass Tabs
Fall Back Down Chords
Junkyman Chords
Lady Liberty Chords
Name Chords
Arrested In Shanghai 1 Tabs
Old Francid: Old Friendriend Tabs
She's Automatic Tabs
Outgunned Ukulele


Song lyrics



↑ Back to top | Tablatures and chords are parodies/interpretations of the original songs. You may use it for private study, scholarship, research or language learning purposes only
© 2014 AZChords.com Contact us | Privacy policy | DMCA | Add/correct tabs | Request tabs | Top 50 tabs