» » »

Rancid, Arrested In Shanghai Bass tabs (ver.2)

Artists:  A B C D E F G H I J K L M N O P Q R S T U V W X Y Z # 

Arrested In Shanghai Bass tabs (ver.2)

Rancid Tabs
Rating:
0/5 (0 votes)
Arrested In Shanghai lessons Tabs too difficult? Try these video lessons and learn fast
                Play This In this Exact Order

--------------------\----------------\--------------------\------------------|
--------------------\----------------\--------------------\------------------|
---------------4/2--\----------------\---------------4/2--\------------------|
5-5-0-022-2-02----4-\5-5-0-022-0-2-4-\5-5-0-022-2-02----4-\5--5-0-022-20-2-4-|

"They Thought I was Guilty"
------------------/-----------------/-----------------/-----------------|
------------------/-----------------/-----------------/-----------------|
------------------/-----------------/-----------------/-----------------|
-5-5-0-0/2-2/0-24-/5-5-0-0/2-2/0-24-/5-5-0-0/2-2/0-24-/5-5-0-0/2-2/0-24-|

------------------  ------------------/-------------------|
------------------  ------------------/-------------------|
------------------  ------------------/--------------4/2--|
-5-5-0-0/2-2/0-24-  -5-5-0-0/2-2/0-24-/5-5-0-022-2-02---4-|

"On night.."
------------------/-----------------/-----------------/-----------------|
------------------/-----------------/-----------------/-----------------|
------------------/-----------------/-----------------/-----------------|
-5-5-0-0/2-2/0-24-/5-5-0-0/2-2/0-24-/5-5-0-0/2-2/0-24-/5-5-0-0/2-2/0-24-|

------------------/------------------|
------------------/------------------|
------------------/------------------|
-5-5-0-0/2-2/0-24-/-5-5-0-0/2-2/0-24-|

------------------/-----------------/---------------/-------------------|
------------------/-----------------/-----------2-2-/-------------------|
------------------/-----------------/---------------/-------------4/2---|
-5-5-0-0/2-2/0-24-/5-5-0-0/2-2/0-24-/5-5-0-022-2----/5-5-0-022-202----4-|

-----------------------\---------------------\----------------------|
-2-22------------------\2-22-----------------\2-22------------------|
------4-2-222----4(4)--\-----4-2-222----4(4)-\----4-2-222-----4(4)--|
--------------2-4----4-\-------------2-4----4\------------2-4-------|

-----------------------------------------------------------------------|
-2-22-------------------------------------------------------------2--2-|
-----4-2-222----4(4)------------------------------------------------4--|
-------------2-4----4-------------------------------------------2------|

----------------/--------------/
------------2-2-/-----------2-2/
-------------4--/------------4-/
-5-50-0-22-2----/5-50-0-22-2---/

------------------/-----------------/-----------------/--------------------|
------------------/-----------------/-----------------/--------------------|
------------------/-----------------/-----------------/---------------4/2--|
-5-5-0-0/2-2/0-24-/5-5-0-0/2-2/0-24-/5-5-0-0/2-2/0-24-/5-5-0-022-20(2)---4-|

-----------------------\---------------------\----------------------|
-2-22------------------\2-22-----------------\2-22------------------|
------4-2-222----4(4)--\-----4-2-222----4(4)-\----4-2-222-----4(4)--|
--------------2-4----4-\-------------2-4----4\------------2-4-------|

------------------------|
-2-22-------------------|
------4-2-222----4(4)---|  Just Keep Playing this over and over then..
--------------2-4----4--|

------------------/-----------------/-----------------/-----------------|
------------------/-----------------/-----------------/-----------------|
------------------/-----------------/-----------------/-----------------|
-5-5-0-0/2-2/0-24-/5-5-0-0/2-2/0-24-/5-5-0-0/2-2/0-24-/5-5-0-0/2-2/0-24-|

------------------/-------------------|
------------------/-------------------|
------------------/-------------------|
-5-5-0-0/2-2/0-24-/5-5-0-0/2-2/0-24---|

--------------------\------------|
--------------------\------------|
---------------4/2--\------------|
5-5-0-022-2-02----4-\5-5-0-022-0-|

Thats All.. Goes in that exact order..good luck
            

comments powered by Disqus
↑ Back to top | Rancid Bass for Arrested In Shanghai. Lyrics for acoustic guitar and electric guitar. Tablatures and chords are parodies/interpretations of the original songs. You may use it for private study, scholarship, research or language learning purposes only