» » »

Rancid, Antennas Bass tabs (ver.1)

Artists:  A B C D E F G H I J K L M N O P Q R S T U V W X Y Z # 

Antennas Bass tabs (ver.1)

Rancid Tabs
 Rating:
4/5 (4 votes)
Antennas lessons Tabs too difficult? Try these video lessons and learn fast
                - Rancid - Antennas

__________
Verse
G|---------------------------------------------------------|
D|---------------------------------------------------------|
A|------------------------------------5-5555---------------|
E|-3-3333-3-3333-3-3333-3-3333-0-0000--------3-3333-3-3333-|

Pre-chorus
G|-----------------------------------------|
D|-----------------------------------------|
A|-3-333333-7-777777-5-555555-5-555555-----|
E|-------------------------------------3~~-|

No Bass

Verse
Pre-chorus
No Bass

Ending
G|-----------------------------|----|
D|-----------------------------|----|
A|--------5-5555---------------|-3x-|
E|-0-0000--------3-3333-3-3333-|----|

G|------------------|----|
D|------------------|----|
A|--------5-5555----|-1x-|
E|-0-0000--------3\-|----|
            
Submit corrections

comments powered by Disqus
↑ Back to top | Rancid Bass for Antennas. Lyrics for acoustic guitar and electric guitar. Tablatures and chords are parodies/interpretations of the original songs. You may use it for private study, scholarship, research or language learning purposes only