» » »

Rancid, Antennas Tabs (ver.2)

Artists:  A B C D E F G H I J K L M N O P Q R S T U V W X Y Z # 

Antennas Tabs (ver.2)

Rancid Tabs
 Rating:
4/5 (4 votes)
Antennas lessons Tabs too difficult? Try these video lessons and learn fast
1
                -----------------------------------------------------------------------------
                             ANTENNAS - Rancid
-----------------------------------------------------------------------------
Standard Tuning

* "...sexism, your selling racism,"
|----------------------------------------------------------------|
|----------------------------------------------------------------|
|----------------------------------------7-77777-----------------|
|5-55555-5-55555-5-55555-5-55555-2-22222-7-77777-5-55555-5-55555-|
|5-55555-5-55555-5-55555-5-55555-2-22222-5-55555-5-55555-5-55555-|
|3-33333-3-33333-3-33333-3-33333-0-00000---------3-33333-3-33333-|
 PM..............................................................|
 {Repeat 2 times}

*This is what the pattern sounds like to me. You can use other strumming patterns and it 
sould good, but I personally prefer this. Just use
G E D G.

|--------------------------------|
|--------------------------------|
|5-5-5-5---------7-7-7-7-7-7-7-7-|
|5-5-5-5-2-2-2-2-7-7-7-7-7-7-7-7-|
|3-3-3-3-2-2-2-2-5-5-5-5-5-5-5-5-|
|--------0-0-0-0-----------------|

* "When you plan that..."
|3----0--2--|
|0----0--3--|
|0----0--2--|
|0----2--0--|
|2----2-----|
|3----0-----|
 G    Em D
 {Repeat about 5 times}
*On the last time, play another G chord before moving to the next part. Just listen to 
song.

 "Oh they talk to you..."
|----------------------------------------------------------------|
|----------------------------------------------------------------|
|----------------------------------------7-77777-----------------|
|5-55555-5-55555-5-55555-5-55555-2-22222-7-77777-5-55555-5-55555-|
|5-55555-5-55555-5-55555-5-55555-2-22222-5-55555-5-55555-5-55555-|
|3-33333-3-33333-3-33333-3-33333-0-00000---------3-33333-3-33333-|
 PM..............................................................|
 {Repeat 2 times}

* "When you plan that..."
|3----0--2--|
|0----0--3--|
|0----0--2--|
|0----2--0--|
|2----2-----|
|3----0-----|
 G    Em D
 {Repeat about 5 times}
*Same as before On the last time, play another G chord before moving to the next part.

 "Let California fall in the f**king ocean."
|--------------------------------|
|--------------------------------|
|--------7-7-7-7-----------------|
|2-2-2-2-7-7-7-7-5-5-5-5-5-5-5-5-|
|2-2-2-2-5-5-5-5-5-5-5-5-5-5-5-5-|
|0-0-0-0---------3-3-3-3-3-3-3-3-|
 {Repeat 3 Times}

|---------------------|
|---------------------|
|--------7-7-7-7------|
|2-2-2-2-7-7-7-7-5----|
|2-2-2-2-5-5-5-5-5----|
|0-0-0-0---------3----|
            
Submit corrections

comments powered by Disqus
↑ Back to top | Rancid Tabs for Antennas. Lyrics for acoustic guitar and electric guitar. 1 Tablatures and chords are parodies/interpretations of the original songs. You may use it for private study, scholarship, research or language learning purposes only