>
 >
Antennas 2

Antennas 2 Bass Tabs

Rancid - Antennas 2 chords, tabs, tablatures, lyrics

Guitar lessons | Add/correct | Request | Top 50 tabs Artists:  A B C D E F G H I J K L M N O P Q R S T U V W X Y Z 0-9

Antennas 2 Bass Tabs – Rancid

CD, Sheet music, Poster

Do you like Antennas 2? Share with your friends now
Bass TabsBass Tabs v2Bass Tabs v3ChordsTabsTabs v2Ukulele
Verse:

G:-----------------------------------------------------------------
D:-----------------------------------------------------------------
A:-------------------------------------------0h3/5/7-7-7-7-5-7-5---
E:0h2h0-3-3-3-3-3-3-3-3-0h3h2-3-3-3-3-3-3-3-3-------------------7/3

G:-----------------------------------------------------------------
D:-----------------------------------------------------------------
A:---------------------------------------5------------------7-7-7-7
E:3-3-3-3-3-3-3-0h2h0-3-3-3-3-3-3-3-3-0h23-3-3-3-3-3-3-3-3-0------

G:-----------------------------------------------------------------
D:-----------------------------------------------------------------
A:5-5//9-10-10-10-10-10-10-10-10(ring)-----------------------------
E:-----------------------------------------------------------------

Pre-Chorus:

G:-----------------------------------------------------------------
D:-------------------7-5-------------------------------------------
A:-0h2-3-3-3-3-----5----7//9-10------------------------------------
E:0-----------0h2h0------------------------------------------------

Chorus:

G:-----------------------------------------------------------------
D:-----------------------------------------------------------------
A:-------------------------NO BASS---------------------------------
E:-----------------------------------------------------------------

Verse 2:

G:-----------------------------------------------------------------
D:-----------------------------------------------------------------
A:----------------------5-3-2---------------------7-7-7-7-5--------
E:0h2h0-3-3-3-3-3-3-3-3-------3-3-3-3-3-3-3-3//10-----------7-5-7-

G:-----------------------------------------------------------------
D:-----------------------------------------------------------------
A:-------------5-------------------5//7-7-7-7-5-9-7-5-10(ring)-----
E:3-3-3-3-3-3-3-2h5-3-3-3-3-3-3-3-3--------------------------------







Pre-Chorus:

G:-----------------------------------------------------------------
D:-------------------------------------------------------------
A:------3-3-3-3--------5-5-5-5-5-5-5-------------------------------
E:12//3--------0h2h0-5---------------------------------------------

Chorus:

G:-----------------------------------------------------------------
D:-----------------------------------------------------------------
A:-------------------------NO BASS---------------------------------
E:-----------------------------------------------------------------



Outro:

G:-----------------------------------------------------------------
D:-----------------------------------------------------------------
A:------7-7-7-7-5-5-5-5/2-----------------7-7-7-7-5-5-5-5----------
E:12//5-------------------3-3-3-3-3-3-3-3-----------------5/3-3-3-

G:-----------------------------------------------------------------
D:--------------------------------------------------4h5h4----------
A:----------7-7-7-7-5-5-5-5----------------7-7-7-7-5------5--------
E:3-3-3-3-3----------------3-3-3-3-3-3-3-3------------------3------





Comments


Popular Rancid tabs & chords
Brews Bass Tabs
Ruby Soho 4 Bass Tabs
Start Now Bass Tabs
Whirlwind 1 Bass Tabs
Who Would've Thought 1 Bass Tabs
YOU DON't CARE NOTHIN' Bass Tabs
Black Derby Jacket Chords
Black Lung 1 Tabs
Disconnected 1 Tabs
Shes Automatic Ukulele


Song lyrics



↑ Back to top | Tablatures and chords are parodies/interpretations of the original songs. You may use it for private study, scholarship, research or language learning purposes only
© 2014 AZChords.com Contact us | Privacy policy | DMCA | Add/correct tabs | Request tabs | Top 50 tabs