» » »

Rancid, Antennas Bass tabs (ver.2)

Artists:  A B C D E F G H I J K L M N O P Q R S T U V W X Y Z # 

Antennas Bass tabs (ver.2)

Rancid Tabs
 Rating:
4/5 (4 votes)
Antennas lessons Tabs too difficult? Try these video lessons and learn fast
                Verse:

G:-----------------------------------------------------------------
D:-----------------------------------------------------------------
A:-------------------------------------------0h3/5/7-7-7-7-5-7-5---
E:0h2h0-3-3-3-3-3-3-3-3-0h3h2-3-3-3-3-3-3-3-3-------------------7/3

G:-----------------------------------------------------------------
D:-----------------------------------------------------------------
A:---------------------------------------5------------------7-7-7-7
E:3-3-3-3-3-3-3-0h2h0-3-3-3-3-3-3-3-3-0h2—3-3-3-3-3-3-3-3-3-0------

G:-----------------------------------------------------------------
D:-----------------------------------------------------------------
A:5-5//9-10-10-10-10-10-10-10-10(ring)-----------------------------
E:-----------------------------------------------------------------

Pre-Chorus:

G:-----------------------------------------------------------------
D:-------------------7-5-------------------------------------------
A:-0h2-3-3-3-3-----5----7//9-10------------------------------------
E:0-----------0h2h0------------------------------------------------

Chorus:

G:-----------------------------------------------------------------
D:-----------------------------------------------------------------
A:-------------------------NO BASS---------------------------------
E:-----------------------------------------------------------------

Verse 2:

G:-----------------------------------------------------------------
D:-----------------------------------------------------------------
A:----------------------5-3-2---------------------7-7-7-7-5--------
E:0h2h0-3-3-3-3-3-3-3-3-------3-3-3-3-3-3-3-3//10-----------7-5-7—-

G:-----------------------------------------------------------------
D:-----------------------------------------------------------------
A:-------------5-------------------5//7-7-7-7-5-9-7-5-10(ring)-----
E:3-3-3-3-3-3-3-2h5-3-3-3-3-3-3-3-3--------------------------------







Pre-Chorus:

G:-----------------------------------------------------------------
D:-------------------------------------------------------------
A:------3-3-3-3--------5-5-5-5-5-5-5-------------------------------
E:12//3--------0h2h0-5---------------------------------------------

Chorus:

G:-----------------------------------------------------------------
D:-----------------------------------------------------------------
A:-------------------------NO BASS---------------------------------
E:-----------------------------------------------------------------



Outro:

G:-----------------------------------------------------------------
D:-----------------------------------------------------------------
A:------7-7-7-7-5-5-5-5/2-----------------7-7-7-7-5-5-5-5----------
E:12//5-------------------3-3-3-3-3-3-3-3-----------------5/3-3-3-

G:-----------------------------------------------------------------
D:--------------------------------------------------4h5h4----------
A:----------7-7-7-7-5-5-5-5----------------7-7-7-7-5------5--------
E:3-3-3-3-3----------------3-3-3-3-3-3-3-3------------------3------
            
Submit corrections

comments powered by Disqus
↑ Back to top | Rancid Bass for Antennas. Lyrics for acoustic guitar and electric guitar. Tablatures and chords are parodies/interpretations of the original songs. You may use it for private study, scholarship, research or language learning purposes only