» » »

Gimme Gimme Shock Treatment Tabs (ver.3)

Artists:  A B C D E F G H I J K L M N O P Q R S T U V W X Y Z # 

Gimme Gimme Shock Treatment Tabs (ver.3)

Ramones
Rating:
0/5 (0 votes)

Tabs too difficult? Try these video lessons and learn fast.
                Ramones
Gimme Gimme Shock Treatment
Tunning: Standard
I'm all most positive this is all right!


Intro
|----------------------|
|----------------------|
|-9-9-9-9-9-9-9-----7--|
|-9-9-9-9-9-9-9--7--7--|
|-7-7-7-7-7-7-7--7--5--|
|----------------5-----|

Main Riff
|----------------------------------|
|----------------------------------|
|--------------------9-9-9-9-9-9-9-|
|-9-9-9-9--7-7-7-7---9-9-9-9-9-9-9-|
|-9-9-9-9--7-7-7-7---7-7-7-7-7-7-7-|
|-7-7-7-7--5-5-5-5-----------------|

Verse
|--------------------|
|--------------------|
|------9--------11---|
|-9----9---11---11---|
|-9----7---11---9----|
|-7--------9---------|

Chorus
|------------|
|------------|
|------------|
|-5-----7----|
|-5-----7----|
|-3-----5----|
            
Tabs too difficult? Try these video lessons and learn fast.




comments powered by Disqus
↑ Back to top | Tablatures and chords are parodies/interpretations of the original songs. You may use it for private study, scholarship, research or language learning purposes only