» » »

Ramones, Gimme Gimme Shock Treatment Tabs (ver.1)

Artists:  A B C D E F G H I J K L M N O P Q R S T U V W X Y Z # 

Gimme Gimme Shock Treatment Tabs (ver.1)

Ramones Tabs
 Rating:
4/5 (4 votes)
Gimme Gimme Shock Treatment lessons Tabs too difficult? Try these video lessons and learn fast
                *I don’t show the rhythm in the Verse and the Chorus
Intro:
e-------------------------------------------------
B-------------------------------------------------
G----9-9-9-9-9-9-9-9-9-9-9-9----------------7-----
D----9-9-9-9-9-9-9-9-9-9-9-9--------7-------7-----
A----7-7-7-7-7-7-7-7-7-7-7-7--------7-------5-----
E-----------------------------------5--------------

Main Riff:
e------------------------------------------------
B------------------------------------------------
G--------------------------------9-9-9-9-9-9-9---
D-----9-9-9-9-------7-7-7-7------9-9-9-9-9-9-9---
A-----9-9-9-9-------7-7-7-7------7-7-7-7-7-7-7---
E-----7-7-7-7-------5-5-5-5----------------------
Verse:
e-------------------------------------------
B------------------------------------------
G--------------9------------11----------
D------9-------9------11----11---------
A------9-------7------11-----9---------
E------7---------------9-----------------

Chorus:
e-------------------------
B------------------------
G------------------------
D----5---------7--------
A----5---------7--------
E----3---------5--------
            
Submit corrections

comments powered by Disqus
↑ Back to top | Ramones Tabs for Gimme Gimme Shock Treatment. Lyrics for acoustic guitar and electric guitar. Tablatures and chords are parodies/interpretations of the original songs. You may use it for private study, scholarship, research or language learning purposes only