» » »

Gimme Gimme Shock Treatment Tabs (ver.2)

Artists:  A B C D E F G H I J K L M N O P Q R S T U V W X Y Z # 

Gimme Gimme Shock Treatment Tabs (ver.2)

Ramones
Rating:
0/5 (0 votes)

Hard to play? Try these video lessons and learn fast.
                Ramones - Gimme Gimme Shock Treatment



Intro/Interlude:
                        4x
e-------------------------
b-------------------------
g---9-9-9-9-9-9------7----
d---9-9-9-9-9-9---9--7----
a---7-7-7-7-7-7---9--5----
e-----------------7-------

Verse:
                                      4x
e---------------------------------------
b---------------------------------------
g------------------------9-9--9--9-9----
d---9-9-9-9---7-7-7-7----9-9--9--9-9----
a---9-9-9-9---7-7-7-7----7-7--7--7-7----
e---7-7-7-7---5-5-5-5-------------------


Bridge:
                                  2x
e-----------------------------------
b-----------------------------------
g----------9--9------------11-11----
d---9--9---9--9----11-11---11-11----
a---9--9---7--7----11-11----9--9----
e---7--7------------9--9------------


Chorus:
                                      4x
e---------------------------------------
b---------------------------------------
g---5-5-5-5-5-5-5-5--2-2-2-2-2-2-2-2----
d---5-5-5-5-5-5-5-5--2-2-2-2-2-2-2-2----
a---3-3-3-3-3-3-3-3--0-0-0-0-0-0-0-0----
e---------------------------------------


Song Structure:

1. Intro
2. Verse
3. Bridge
4. Verse
5. Chorus
6. Interlude
7. Verse
8. Bridge
9. Verse
10. Chorus (8x instead of 4x)

That's the whole song...
            
Hard to play? Try these video lessons and learn fast. | Correct




comments powered by Disqus
↑ Back to top | Tablatures and chords are parodies/interpretations of the original songs. You may use it for private study, scholarship, research or language learning purposes only