» » »

Ramones, Gimme Gimme Shock Treatment Bass tabs (ver.1)

Artists:  A B C D E F G H I J K L M N O P Q R S T U V W X Y Z # 

Gimme Gimme Shock Treatment Bass tabs (ver.1)

Ramones Tabs
 Rating:
4/5 (4 votes)
Gimme Gimme Shock Treatment lessons Tabs too difficult? Try these video lessons and learn fast
                By The Ramones

Intro

|---------------------|
|---------------------|
|-7-7-7-7-7-7-7-7-9-5-|
|---------------------|x2

Verse

|---------------------------------|
|---------------------------------|
|-----------------7-7-7-7-7-7-7-7-|
|-7-7-7-7-5-5-5-5-----------------| x4

|---------------------------------|
|---------------------------------|
|---------7-7-7-7---------7-7-7-7-|
|-7-7-7-7---------9-9-9-9---------|

|---------------------------------|
|---------------------------------|
|-----------------7-7-7-7-7-7-7-7-|
|-7-7-7-7-5-5-5-5-----------------| x4

Chorus

|---------------------------------|
|---------------------------------|
|---------------------------------|
|-5-5-5-5-5-5-5-5-7-7-7-7-7-7-7-7-|
            
Submit corrections

comments powered by Disqus
↑ Back to top | Ramones Bass for Gimme Gimme Shock Treatment. Lyrics for acoustic guitar and electric guitar. Tablatures and chords are parodies/interpretations of the original songs. You may use it for private study, scholarship, research or language learning purposes only