» » »

Rammstein, Wollt Ihr Das Bett In Flammen Sehen Tabs (ver.3)

Artists:  A B C D E F G H I J K L M N O P Q R S T U V W X Y Z # 

Wollt Ihr Das Bett In Flammen Sehen Tabs (ver.3)

Rammstein Tabs
Rating:
0/5 (0 votes)
Wollt Ihr Das Bett In Flammen Sehen lessons Tabs too difficult? Try these video lessons and learn fast
                Rammstein
Wolt Ihr Das In Flammen Sehen

I think Rammstein is one of the most heavy
bands in the world, i will be putting the whole tab 
for the first cd, here is this so far...thanks
Dropped D tuning
/=slide up

Opening Play ONCE!
|-----------|
|-----------|
|-----------|
|-7---8---7-|
|-5---6---5-|
|---0---0---|

Then:
|-----------------|
|-----------------|
|-----------------| Main Riff...Just keep Repeating...
|-5/-7---8---7----|
|-3/-5---6---5----|
|------0---0---00-|

You'll here this too in the back round in the main riff:
|-----------------|
|-----------------|
|-/10101010101010-|
|-xxxxxxxxxxxxxxx-|
|-/88888888888888-|
|-----------------|

Then:
|-------------------|
|-------------------|
|-------------------|
|-66-55--3--0-0-0-0-|
|-66-55--3--0-0-0-0-|
|-66-55--3--0-0-0-0-|

Those are the main riffs, just listen to the song first
and then put it all together...
            

comments powered by Disqus
↑ Back to top | Rammstein Tabs for Wollt Ihr Das Bett In Flammen Sehen. Lyrics for acoustic guitar and electric guitar. Tablatures and chords are parodies/interpretations of the original songs. You may use it for private study, scholarship, research or language learning purposes only