>
 >
Weisses Fleisch 1

Weisses Fleisch 1 Guitar Tabs

Rammstein - Weisses Fleisch 1 chords, tabs, tablatures, lyrics

Guitar lessons | Add/correct | Request | Top 50 tabs Artists:  A B C D E F G H I J K L M N O P Q R S T U V W X Y Z 0-9

Weisses Fleisch 1 Guitar Tabs – Rammstein

CD, Sheet music, Poster

Do you like Weisses Fleisch 1? Share with your friends now
Bass TabsBass Tabs v2TabsTabs v2Tabs v3Tabs v4
Rammstein  Weisses Fleisch 
Drop D tuning

Main Riff
E |------------------------------------|
B |------------------------------------| 
G |-----------------------*5-----------|
D |------------------------------------|
A |----------3/4-----------------------|
D |---0 0---3/4------------------------|
 P.M .   .

Chorus
E|------------------------------|
B|------------------------------|
G|------------------------------|
D|------------------------------|
A|---4---1------6--4--3---------|
D|---4---1------6--4--3---------|

Under Solo Gtr.2  (Paul does this)
E|--------------------------------|
B|--------------------------------|
G|--------------------------------|
D|--------------------------------|
A|--0--3--4--3--------------------|
D|--0--3--4--3--------------------|
P.M.    .    .   .                    keep repeating until solo ends

Solo
E|----------------------------------------------------------------------------------
B|--17-17-17-17p14--17-17-17-17p14----17-17-17-17p14-----------------------
G|------------------------------------------------16--------------------------------
D|----------------------------------------------------------------------------------
A|----------------------------------------------------------------------------------
D|----------------------------------------------------------------------------------

E|-------------------------17-----17p14-----14--------------------------------------
B|--17-17-17-17p14------------------17------17p14--17p14----14--------------------
G|------------------------------------------------------------------16-----16p14--16
D|-----------------------------------------------------------------------------------
A|-----------------------------------------------------------------------------------
D|-----------------------------------------------------------------------------------

E|-----------------------------------------------------------------------------------
B|-----------------------------------------------------------------------------------
G|-16p14-----14----------------------------------------------------------------------
D|---------16-----16p14-16p14------14------------------------------------------------
A|----------------------------------16------16p14---16------------------------------
D|-----------------------------------------------------------------------------------

Ending Riff
E|-----------------------------------------------|
B|-----------------------------------------------|
G|-----------------------------------------------|
D|-----------------------------------------------|
A|-3-4-3-4-3-4-3-4-3-4-3-4---3-------------------|
D|-3-4-3-4-3-4-3-4-3-4-3-4---3-------------------|
P.M.......................





Comments


Popular Rammstein tabs & chords
Du Riechst So Gut Bass Tabs
Senchult 1 Bass Tabs
Wollt Ihr Bas Bett In Flammen Sehen Bass Tabs
Du Riechst So Gut (Solo) Tabs
Mutter 7 Tabs
Reise Reise 1 Tabs
Seeman 1 Tabs
Seeman 2 Tabs
Te Quiero Puta Tabs
Zwitter 2 Tabs


Song lyrics



↑ Back to top | Tablatures and chords are parodies/interpretations of the original songs. You may use it for private study, scholarship, research or language learning purposes only
© 2014 AZChords.com Contact us | Privacy policy | DMCA | Add/correct tabs | Request tabs | Top 50 tabs