» » »

Rammstein, Weisses Fleisch Tabs (ver.2)

Artists:  A B C D E F G H I J K L M N O P Q R S T U V W X Y Z # 

Weisses Fleisch Tabs (ver.2)

Rammstein Tabs
 Rating:
4/5 (4 votes)
Weisses Fleisch lessons Tabs too difficult? Try these video lessons and learn fast
1
                Rammstein – Weisses Fleisch 
Drop D tuning

Main Riff
E |------------------------------------|
B |------------------------------------| 
G |-----------------------*5-----------|
D |------------------------------------|
A |----------3/4-----------------------|
D |---0 0---3/4------------------------|
 P.M .   .

Chorus
E|------------------------------|
B|------------------------------|
G|------------------------------|
D|------------------------------|
A|---4---1------6--4--3---------|
D|---4---1------6--4--3---------|

Under Solo Gtr.2  (Paul does this)
E|--------------------------------|
B|--------------------------------|
G|--------------------------------|
D|--------------------------------|
A|--0--3--4--3--------------------|
D|--0--3--4--3--------------------|
P.M.    .    .   .                    keep repeating until solo ends

Solo
E|----------------------------------------------------------------------------------
B|--‘17-‘17-‘17-17p14--‘17-‘17’-17-17p14----‘17-‘17-‘17-17p14-----------------------
G|------------------------------------------------16--------------------------------
D|----------------------------------------------------------------------------------
A|----------------------------------------------------------------------------------
D|----------------------------------------------------------------------------------

E|-------------------------‘17-----17p14-----14--------------------------------------
B|--‘17-‘17-‘17-17p14------------------17------17p14--17p14----14--------------------
G|------------------------------------------------------------------16-----16p14--‘16
D|-----------------------------------------------------------------------------------
A|-----------------------------------------------------------------------------------
D|-----------------------------------------------------------------------------------

E|-----------------------------------------------------------------------------------
B|-----------------------------------------------------------------------------------
G|-16p14-----14----------------------------------------------------------------------
D|---------16-----16p14-16p14------14------------------------------------------------
A|----------------------------------16------16p14---‘16------------------------------
D|-----------------------------------------------------------------------------------

Ending Riff
E|-----------------------------------------------|
B|-----------------------------------------------|
G|-----------------------------------------------|
D|-----------------------------------------------|
A|-3-4-3-4-3-4-3-4-3-4-3-4---3-------------------|
D|-3-4-3-4-3-4-3-4-3-4-3-4---3-------------------|
P.M.......................
            
Submit corrections

comments powered by Disqus
↑ Back to top | Rammstein Tabs for Weisses Fleisch. Lyrics for acoustic guitar and electric guitar. 1 Tablatures and chords are parodies/interpretations of the original songs. You may use it for private study, scholarship, research or language learning purposes only