» » »

Rammstein, Seeman Tabs (ver.3)

Artists:  A B C D E F G H I J K L M N O P Q R S T U V W X Y Z # 

Seeman Tabs (ver.3)

Rammstein Tabs
 Rating:
4/5 (4 votes)
Seeman lessons Tabs too difficult? Try these video lessons and learn fast
                Track#: 5

4/4

e
b
g
d
a
e

Bass arranged for guitar
|-------------------------------------------------------------------------|
|-------------------------------------------------------------------------|
|---------18-------------16-------------14--------------13----------------|
|-----14-----14------14------14-----14-------14-----14------14------------|
|--0---------------0-------------0---------------0------------------------|
|-------------------------------------------------------------------------|

|--------------------------------------------------------------------|
|--------------------------------------------------------------------|
|---------11-------------11------------13-------------13-------------|
|------9------9-------9------9------9-------9------9------9----------|
|--11-------------11------------11-------------11--------------------|
|--------------------------------------------------------------------|

|---------------------------------------------------------------------------|
|---------------------------------------------------------------------------|
|----------14--------------13-------------11---------------9----------------|
|------11------11-----11-------11-----11-----11-------11-------9------------|
|---9--------------9---------------9--------------9-------------------------|
|---------------------------------------------------------------------------|

|------------------------------------------------------------|
|------------------------------------------------------------|
|--------6------------5------------6-----------6-------------|
|-----6-----6-----6------6-----6------6-----6-----6----------|
|--4-----------4------------4------------4-------------------|
|------------------------------------------------------------|

Heavy Part
|-------------------------------------------------------------|
|-------------------------------------------------------------|
|-------------------------------------------------------------|
|-------------------------------------------------------------|
|--6----------------------------------------------------------|
|--4----------------------------------------------------------|
  ///


|-------------------------------------------------------------|
|-------------------------------------------------------------|
|-------------------------------------------------------------|
|-------------------------------------------------------------|
|--4----------------------------------------------------------|
|--2----------------------------------------------------------|
  ///
|-------------------------------------------------------------|
|-------------------------------------------------------------|
|-------------------------------------------------------------|
|-------------------------------------------------------------|
|--2----------------------------------------------------------|
|--0----------------------------------------------------------|
  ///
|-------------------------------------------------------------|
|-------------------------------------------------------------|
|-------------------------------------------------------------|
|-------------------------------------------------------------|
|--2----------------------------------------------------------|
|--2----------------------------------------------------------|
  ///



One part goes
	|-------------------------------------|
	|-------------------------------------|
	|-------------------------------------|
	|--2-----------------------------2----|
	|--2-----------------------------2----|
	|--0----0------------0-----------0----|
PM                   **           **
            
Submit corrections

comments powered by Disqus
↑ Back to top | Rammstein Tabs for Seeman. Lyrics for acoustic guitar and electric guitar. Tablatures and chords are parodies/interpretations of the original songs. You may use it for private study, scholarship, research or language learning purposes only