>
 >
Schwarzes Glas 1

Schwarzes Glas 1 Guitar Tabs

Rammstein - Schwarzes Glas 1 chords, tabs, tablatures, lyrics

Guitar lessons | Add/correct | Request | Top 50 tabs Artists:  A B C D E F G H I J K L M N O P Q R S T U V W X Y Z 0-9

Schwarzes Glas 1 Guitar Tabs – Rammstein

CD, Sheet music, Poster

Do you like Schwarzes Glas 1? Share with your friends now
TabsTabs v2
Quite fast
E-----------------------------------
B-----------------------------------
G-----------------------------------
D-----8-x--11-x--8--x--9------5h6---
A-----8-x--11-x--8--x--9------5h6---
D-----8-x--11-x--8--x--9------5h6---

Very fast pm can be hard so sum times just do the x thing
                                                  x
                                                  x
E------------------------------------------------
B------------------------------------------------
G------------------------------------------------
D-----3-3-3-3--33h43-3-3-3---3---3h4--1--------
A-----3-3-3-3--33h43-3-3-3---3---3h4--1--------
D-----3-3-3-3--33h43-3-3-3--3---3h4--1-------- 
       <pm>

End Solo

This is hard to pick out but this is what I got

E----------------------------------------------------------------------
B-----------12---------12--------10--------10------8--------8-----
G------9-9------9-9-9------9-9-----9-9-9-----9-9---9-9-9-------
and thats all i can do so correct me if u like





Comments


Popular Rammstein tabs & chords
Moskau 2 Bass Tabs
Nebel Bass Tabs
Sonne Bass Tabs
Nebel 1 Chords
FeuerräDer Tabs
Fever Und Wasser Tabs
Ich Tu Dir Weh 2 Tabs
Ohne Dich 2 Tabs
Stein Um Stien Tabs
Sonne German Ukulele


Song lyrics



↑ Back to top | Tablatures and chords are parodies/interpretations of the original songs. You may use it for private study, scholarship, research or language learning purposes only
© 2014 AZChords.com Contact us | Privacy policy | DMCA | Add/correct tabs | Request tabs | Top 50 tabs