» » »

Schwarzes Glas Tabs (ver.2)

Artists:  A B C D E F G H I J K L M N O P Q R S T U V W X Y Z # 

Schwarzes Glas Tabs (ver.2)

Rammstein
Rating:
0/5 (0 votes)

Hard to play? Try these video lessons and learn fast.
                Quite fast
E-----------------------------------
B-----------------------------------
G-----------------------------------
D-----8-x--11-x--8--x--9------5h6---
A-----8-x--11-x--8--x--9------5h6---
D-----8-x--11-x--8--x--9------5h6---

Very fast pm can be hard so sum times just do the x thing
                                                  x
                                                  x
E------------------------------------------------
B------------------------------------------------
G------------------------------------------------
D-----3-3-3-3--3—3h4—3-3-3-3---3---3h4--1--------
A-----3-3-3-3--3—3h4—3-3-3-3---3---3h4--1--------
D-----3-3-3-3--3—3h4—3-3-3-3—--3---3h4--1-------- 
       <pm>

End Solo

This is hard to pick out but this is what I got

E----------------------------------------------------------------------
B-----------12---------12--------10--------10------8--------8-----
G------9-9------9-9-9------9-9-----9-9-9-----9-9---9-9-9-------
and thats all i can do so correct me if u like
            
Hard to play? Try these video lessons and learn fast. | Correct




comments powered by Disqus
↑ Back to top | Tablatures and chords are parodies/interpretations of the original songs. You may use it for private study, scholarship, research or language learning purposes only