» » »

Rammstein Tabs (ver.1)

Artists:  A B C D E F G H I J K L M N O P Q R S T U V W X Y Z # 

Rammstein Tabs (ver.1)

Rammstein
Rating:
0/5 (0 votes)

Hard to play? Try these video lessons and learn fast.
                band=rammstein
song= rammstein the real version
   

eadgbe

i use a digitech rp200 put it on limpy it sounds great its a great littel riff
---------9/10---------9/10------- 9/10----10/9---------------------------------
---------7/8-----------7/8---------7/8-------8/-7--------------------------------
-0--0-----------0--0---------0--0--------------------------------------------------

                                                                                            10/9
repeat 1 time except you wont play this youl play what is bellow 8/7
do this on the g string  12~~~~~ whammy while hoding the whammy 


keep reapiting

then

-------------------------------------------
--------------------------------------------
---------------------------------------------
----------------------------------------------
-5/2-------xxxxxx---5/2---------------
-3/0-------xxxxxx---3/0---------------
            
Hard to play? Try these video lessons and learn fast. | Correct




comments powered by Disqus
↑ Back to top | Tablatures and chords are parodies/interpretations of the original songs. You may use it for private study, scholarship, research or language learning purposes only