» » »

Mann Gegen Mann Tabs (ver.1)

Artists:  A B C D E F G H I J K L M N O P Q R S T U V W X Y Z # 

Mann Gegen Mann Tabs (ver.1)

Rammstein
Rating:
0/5 (0 votes)

Hard to play? Try these video lessons and learn fast.
                All song palm muted with Distortion (or Metal Zone) effect, except interlude
(almost clean). Listen to the song for the right timing.

Main riff/ Chorus:
e|--------------|
B|--------------|
G|-5---5---5-7--|
D|-5-6-5-3-5-7-3|
A|-3-6-3-3-3-5-3|
E|-3-4-3-1-3-5-1|


Bridge:
e|--------------------------------------------------|
B|--------------------------------------------------|
G|--------------------------------------------------|
D|-8-10-10-10-10-10---8-10-10-10-10-10---8-10-10-10-|  x2 
A|-8-10-10-10-10-10---8-10-10-10-10-10---8-10-10-10-|
E|-6--8--8--8--8--8---6--8--8--8--8--8---6--8--8—-8-|


e|---------------------------------------------------|
B|---------------------------------------------------|
G|---------------------------------------------------|
D|-8-6-6-6-6-6--8-6-6-6-6-6--8-6-6-6--8-6-6-6-6-6----|
A|-8-6-6-6-6-6--8-6-6-6-6-6--8-6-6-6--8-6-6-6-6-6----|
E|-6-4-4-4-4-4--6-4-4-4-4-4--6-4-4-4--6-4-4-4-4-4----|
(Repeat as needed)


Interlude x2: 
e I------------------------------------------I
B I----------4-------4-------3-------3-------I
G I--------4---4---4---4---4---4---4---4-----I
D I------5-------5-------3-------3-----------I
A I------------------------------------------I
E I------------------------------------------I


Riff:
e|---------------------------------|
B|---------------------------------|
G|-5-5-5-------5-5-5-------8-8-----|
D|-5-5-5-6-6-6-5-5-5-3-3-3-8-8-3-3-| 
A|-3-3-3-6-6-6-3-3-3-3-3-3-6-6-3-3-|
E|-3-3-3-4-4-4-3-3-3-1-1-1-6-6-1-1-|
            
Hard to play? Try these video lessons and learn fast. | Correct




comments powered by Disqus
↑ Back to top | Tablatures and chords are parodies/interpretations of the original songs. You may use it for private study, scholarship, research or language learning purposes only