>
 >
Links, 2, 3, 4 2

Links, 2, 3, 4 2 Guitar Tabs

Rammstein - Links, 2, 3, 4 2 chords, tabs, tablatures, lyrics

Guitar lessons | Add/correct | Request | Top 50 tabs Artists:  A B C D E F G H I J K L M N O P Q R S T U V W X Y Z 0-9

Links, 2, 3, 4 2 Guitar Tabs – Rammstein

CD, Sheet music, Poster

Do you like Links, 2, 3, 4 2? Share with your friends now
Tabs
This is my second tab of the new album, "Mutter." Enjoy!!

Standard Tuning

Tempo: 130 bpm

Tab Key:
	P.M.= Palm Mute
	   /= Slide Up
	  ()= Tied Note
	  **= Natural Harmonic
	  {}= Sometimes Struck
	 _p_= Pull-Off


Riff 1
P.M.--|      P.M.----|       P.M.-----|                  P.M.
|--------------------------------|--------------------------------|
|--------------------------------|--------------------------------|
|--------4---------------4-------|--------4-----------------------|
|--------2---------------2-------|--------2---X-X-5///7-------8---|
|--------2---------------2-------|--------2---X-X-5///7-------8---|
|0---0---0---0---0---0---0---0---|0---0---0---X-X-3///5---0---6---|



Fill 1
P.M.--|      P.M.----|       P.M.-----|
|--------------------------------|--------------------------------|
|--------------------------------|--------------------------------|
|--------4---------------4-------|--------4-----------------------|
|--------2---------------2-------|--------2---X-X-X-X-8---8---8---|
|--------2---------------2-------|--------2---X-X-X-X-8---8---8---|
|0---0---0---0---0---0---0---0---|0---0---0---X-X-X-X-6---6---6---|



Verse Riff
                                                                   3x
||--------------------------------|--------------------------------||
||*-------------------------------|-------------------------------*||
||*-------------------------------|-------------------------------*||
||--------------------------------|--------------------------------||
||--------------------------------|--------------------------------||
||0---0--*5*--0---0---0--*5*--0---|0---0--*5*--0---3///5---0---6---||



|--------------------------------|--------------------------------|
|--------------------------------|--------------------------------|
|--------------------------------|--------------------------------|
|--------------------------------|--------------------------------|
|--------------------------------|--------------------------------|
|0---0--*5*--0---0---0--*5*--0---|0---0--*5*--0---3///6---6---6---|


                                                                   2x
||--------------------------------|--------------------------------||
||*-------------------------------|-------------------------------*||
||*-------------------------------|-------------------------------*||
||--------------------------------|--------------------------------||
||--------------------------------|--------------------------------||
||0---0--*5*--0---0---0--*5*--0---|0---0--*5*--0---3///5---0---6---||



Chorus Riff

|--------------------------------|--------------------------------|
|--------------------------------|--------------------------------|
|4-------------------------------|--------------------------------|
|2-------------------------------|5-------------------------------|
|2-------------------------------|5-------------------------------|
|0-------------------------------|3-------------------------------|



|--------------------------------|--------------------------------|
|--------------------------------|--------------------------------|
|--------------------------------|--------------------------------|
|7-------------------------------(7)--------------X-X-X-X-8---8---|
|7-------------------------------(7)--------------X-X-X-X-8---8---|
|5-------------------------------(5)--------------X-X-X-X-6---6---|



Clean Riff
P.M.--|      P.M.----|       P.M.-----|      P.M.        P.M.
|--------------------------------|--------------------------------|
|--------------------------------|--------------------------------|
|--------------------------------|--------------------------------|
|--------2---------------2-------|--------2-------5///7-------8---|
{2}-{2}--2--{2}-{2}-{2}--2--{2}--{2}-{2}--2--{2}--5///7-------8---|
|0---0---0---0---0---0---0---0---|0---0---0---0---3///5---0---6---|



Solo

|-_p_-----_p_-----_p_-----_p_-----_p_-----_p_-----_p_-----_p_----|
|7---0---8---0---10--0---12--0---10--0---8---0---7---0---8---0---|
|----------------------------------------------------------------|
|----------------------------------------------------------------|
|----------------------------------------------------------------|
|----------------------------------------------------------------|
 |               |               |               |


|-_p_-----_p_-----_p_-----_p_-----_p_-----_p_--------------------|
|10--0---12--0---10--0---8---0---7---0---8---0---5---------------|
|----------------------------------------------------------------|
|----------------------------------------------------------------|
|----------------------------------------------------------------|
|----------------------------------------------------------------|
 |               |               |               |


|-_p_-----_p_-----_p_-----_p_-----_p_-----_p_-----_p_-----_p_----|
|7---0---8---0---10--0---12--0---10--0---8---0---7---0---8---0---|
|----------------------------------------------------------------|
|----------------------------------------------------------------|
|----------------------------------------------------------------|
|----------------------------------------------------------------|
 |               |               |               |


|-_p_-----_p_-----_p_-----_p_-----_p_-----_p_----7---------------|
|10--0---12--0---10--0---8---0---7---0---8---0-------------------|
|----------------------------------------------------------------|
|----------------------------------------------------------------|
|----------------------------------------------------------------|
|----------------------------------------------------------------|
 |               |               |               |


|-_p_-----_p_-----_p_-----_p_-----_p_-----_p_-----_p_-----_p_----|
|7---0---8---0---10--0---12--0---10--0---8---0---7---0---8---0---|
|----------------------------------------------------------------|
|----------------------------------------------------------------|
|----------------------------------------------------------------|
|----------------------------------------------------------------|
 |               |               |               |


|-_p_-----_p_-----_p_-----_p_-----_p_-----_p_--------------------|
|10--0---12--0---10--0---8---0---7---0---8---0---5---------------|
|----------------------------------------------------------------|
|----------------------------------------------------------------|
|----------------------------------------------------------------|
|----------------------------------------------------------------|
 |               |               |               |


|-_p_-----_p_-----_p_-----_p_-----_p_-----_p_-----_p_-----_p_----|
|7---0---8---0---10--0---12--0---10--0---8---0---7---0---8---0---|
|----------------------------------------------------------------|
|----------------------------------------------------------------|
|----------------------------------------------------------------|
|----------------------------------------------------------------|
 |               |               |               |


|-_p_-----_p_-----_p_-----_p_-----_p_-----_p_----7------------Tied On
|10--0---12--0---10--0---8---0---7---0---8---0-------------------|
|----------------------------------------------------------------|
|----------------------------------------------------------------|
|----------------------------------------------------------------|
|----------------------------------------------------------------|
 |               |               |               |


Song Sequence:
	Marching Intro
Riff 1 (3x)
Fill 1 (1x)
Riff 1 (2x)
Verse Riff (1x)
Riff 1 (4x)
Verse Riff (1x)
Riff 1 (4x)
Chorus Riff (2x)
Clean Riff (1x)
Clean Riff (8x)
Riff 1 (4x)
Solo (1x) with Riff 1 (4x)
Chorus Riff (4x)
	Scratchy noise that leads into "Sonne."





Comments


Popular Rammstein tabs & chords
Das Modell 2 Bass Tabs
Klavier Bass Tabs
Nebel 2 Bass Tabs
Sonne 2 Bass Tabs
Wo Bist Du Chords
BüCk Dich 1 Tabs
Feuer Und Wasser 2 Tabs
Reise Reise 3 Tabs
Wollt Ihr Das Bett In Flammen Sehen? 2 Tabs
Ohne Dich Ukulele


Song lyrics



↑ Back to top | Tablatures and chords are parodies/interpretations of the original songs. You may use it for private study, scholarship, research or language learning purposes only
© 2014 AZChords.com Contact us | Privacy policy | DMCA | Add/correct tabs | Request tabs | Top 50 tabs