» » »

Kuss Mich Tabs (ver.1)

Artists:  A B C D E F G H I J K L M N O P Q R S T U V W X Y Z # 

Kuss Mich Tabs (ver.1)

Rammstein
Rating:
0/5 (0 votes)

Hard to play? Try these video lessons and learn fast.
                D-Tuning


Main Riff:
-------------------------------------------------
-------------------------------------------------
-------------------------------------------------
-0--3-----3---------3-----3----------------------
-0--3--0--3--0--0-0-3--0--3--0-------------------
-0--3--0--3--0--0-0-3--0--3--0-------------------
       x     x  x x    x     x           p.m.

Refrain:
-------------------------------------------------
-------------------------------------------------
-----2---3---5-----------------------------------
-0---2---3---5-----------------------------------
-0---0---1---3-----------------------------------
-0-----------------------------------------------
            
Hard to play? Try these video lessons and learn fast. | Correct




comments powered by Disqus
↑ Back to top | Tablatures and chords are parodies/interpretations of the original songs. You may use it for private study, scholarship, research or language learning purposes only