» » »

Rammstein, Halt Tabs (ver.2)

Artists:  A B C D E F G H I J K L M N O P Q R S T U V W X Y Z # 

Halt Tabs (ver.2)

Rammstein Tabs
 Rating:
4/5 (4 votes)
Halt lessons Tabs too difficult? Try these video lessons and learn fast
1
                Drop: Standard


Main Riff x3:
E|---------------------------------| <---|
B|---------------------------------|     | 
G|---------------------------------|     |
D|---------------------------------|     |
A|--0--000--0--000--0--000--5--0-0-|     |
E|--0--000--0--000--0--000--5--0-0-|     |
    .  ...  .  ...  .  ...     . .       |
                                         |
E|--------------------------|            |
B|--------------------------|            |
G|--------------------------|            |
D|--------------------------|            |
A|--0--000--0--000--0--000--|            |-------> Repeat 3 times
E|--0--000--0--000--0--000--|            |
    .  ...  .  ...  .  ...               |
                                         |
Then                                     |
E|------------|                          |
B|------------|                          |
G|------------|                          |
D|--6--5--3--0|                          |
A|--6--5--3--0|                          |
E|--6--5--3--0|                      <---|

Verse: play 4x:
E|-----------------------------------|
B|-----------------------------------|
G|-----------------------------------|
D|-------------------------3---------|
A|--5-------5-------5----------------|
E|--0--0-0--0--0-0--0--0-0---0-0-----|
    .  . .  .  . .  .  . .   . .

After play 8x:
E|-----------------------------------|
B|-----------------------------------|
G|-----------------------------------|
D|-------------------------3---------|
A|--3-------3-------3----------------|
E|--3--3-3--3--3-3--3--3-3---3-3-----|
    .  . .  .  . .  .  . .   . .

Chorus:4x
E|----------------------------------------------------|
B|----------------------------------------------------|
G|----------------------------------------------------|
D|-0-0-0-0-0-0-5-5-5-5-5-5-3-3-3-3-3-3-8-8-8-10-10-10-|
A|-0-0-0-0-0-0-5-5-5-5-5-5-3-3-3-3-3-3-8-8-8-10-10-10-|
E|-0-0-0-0-0-0-5-5-5-5-5-5-3-3-3-3-3-3-8-8-8-10-10-10-|



Main Riff x3:
E|---------------------------------| 
B|---------------------------------|     
G|---------------------------------|     
D|---------------------------------|     
A|--0--000--0--000--0--000--5--0-0-|     
E|--0--000--0--000--0--000--5--0-0-|     
    .  ...  .  ...  .  ...     . .       
                                         
E|--------------------------|            
B|--------------------------|            
G|--------------------------|            
D|--------------------------|            
A|--0--000--0--000--0--000--|            
E|--0--000--0--000--0--000--|            
    .  ...  .  ...  .  ...               
                                         
Then                                     
E|------------|                           
B|------------|                           
G|------------|                           
D|--6--5--3--0|                           
A|--6--5--3--0|                           
E|--6--5--3--0| 


Verse 2: play 4x:
E|-----------------------------------|
B|-----------------------------------|
G|-----------------------------------|
D|-------------------------3---------|
A|--5-------5-------5----------------|
E|--0--0-0--0--0-0--0--0-0---0-0-----|
    .  . .  .  . .  .  . .   . .

After play 4x:
E|-----------------------------------|
B|-----------------------------------|
G|-----------------------------------|
D|-------------------------3---------|
A|--3-------3-------3----------------|
E|--3--3-3--3--3-3--3--3-3---3-3-----|
    .  . .  .  . .  .  . .   . .

Chorus 2: 6x
E|----------------------------------------------------|
B|----------------------------------------------------|
G|----------------------------------------------------|
D|-0-0-0-0-0-0-5-5-5-5-5-5-3-3-3-3-3-3-8-8-8-10-10-10-|
A|-0-0-0-0-0-0-5-5-5-5-5-5-3-3-3-3-3-3-8-8-8-10-10-10-|
E|-0-0-0-0-0-0-5-5-5-5-5-5-3-3-3-3-3-3-8-8-8-10-10-10-|

Then:

E|---------------------------------------|    
B|---------------------------------------|
G|---------------------------------------|
D|-888888888888-101010101010101010101010-|
A|-888888888888-101010101010101010101010-|
E|-888888888888-101010101010101010101010-|
                |___These are #10________| 


Ending chorus:
E|---
B|---
G|---
D|-0-
A|-0-
E|-0-

Bridge 2x:

E|--------------------------------------------------|
B|--------------------------------------------------|
G|--------------------------------------------------|
D|-777777777777555555555555333333333333777777777777-|
A|-777777777777555555555555333333333333777777777777-|
E|-777777777777555555555555333333333333777777777777-|

Chorus Final:

E|--------------------------------------------------|
B|--------------------------------------------------|
G|--------------------------------------------------|
D|-777777777777555555555555333333333333777777777777-|
A|-777777777777555555555555333333333333777777777777-|
E|-777777777777555555555555333333333333777777777777-|

Then:

E|---------------------------------------|    
B|---------------------------------------|
G|---------------------------------------|
D|-888888888888-101010101010101010101010-|
A|-888888888888-101010101010101010101010-|
E|-888888888888-101010101010101010101010-|
                                                       
End song:
E|---
B|---
G|---
D|-0-
A|-0-
E|-0-


                      
            
Submit corrections

comments powered by Disqus
↑ Back to top | Rammstein Tabs for Halt. Lyrics for acoustic guitar and electric guitar. 1 Tablatures and chords are parodies/interpretations of the original songs. You may use it for private study, scholarship, research or language learning purposes only