» » »

Hallelujah Tabs (ver.2)

Artists:  A B C D E F G H I J K L M N O P Q R S T U V W X Y Z # 

Hallelujah Tabs (ver.2)

Rammstein
Rating:
0/5 (0 votes)

Hard to play? Try these video lessons and learn fast.
                Intro + 1st Verse
|------------------------------------------------------------------------|
|------------------------------------------------------------------------|
|------------------------------------------------------------------------|
|-5--5--2----------------------------3--3--2-----------------------------| x5
|-5--5--2----------------------------3--3--2-----------------------------|
|-3--3--0----------------------------1--1--0-----------------------------|


Bridge
|------------------------------------------------------------------------|
|------------------------------------------------------------------------|
|------------------------------------------------------------------------|
|-5--5--2-------2-------2-----2-------3--3--2-------2-------2-----2------| x2
|-5--5--2-------2-------2-----2-------3--3--2-------2-------2-----2------|
|-3--3--0-x-x-x-0-x-x-x-0-x-x-0-x-x-x-1--1--0-x-x-x-0-x-x-x-0-x-x-0-x-x-x|


2nd Verse 
|------------------------------------------------------------------------|
|------------------------------------------------------------------------|
|------------------------------------------------------------------------|
|-5--5--2-------x-------x-----x-------3--3--2-------x-------x-----x------| x4
|-5--5--2-------x-------x-----x-------3--3--2-------x-------x-----x------|
|-3--3--0-x-x-x-x-x-x-x-x-x-x-x-x-x-x-1--1--0-x-x-x-x-x-x-x-x-x-x-x-x-x-x|


Bridge
|------------------------------------------------------------------------|
|------------------------------------------------------------------------|
|------------------------------------------------------------------------|
|-5--5--2-------2-------2-----2-------3--3--2-------2-------2-----2------| x1
|-5--5--2-------2-------2-----2-------3--3--2-------2-------2-----2------|
|-3--3--0-x-x-x-0-x-x-x-0-x-x-0-x-x-x-1--1--0-x-x-x-0-x-x-x-0-x-x-0-x-x-x|


Chorus
|------------------------------------------------------------------------|
|------------------------------------------------------------------------|
|-------------------5--5--2----------5--5--------------4--4--------------|
|-5--5--2-----------5--5--2----------5--5--5-----------4--4--3-----------| x2
|-5--5--2-----------3--3--0----------3--3--5-----------2--2--3-----------|
|-3--3--0----------------------------------3-----------------1-----------|


3rd Verse
|------------------------------------------------------------------------|
|------------------------------------------------------------------------|
|------------------------------------------------------------------------|
|------------------------------------------------------------------------| x1
|------------------------------------------------------------------------|
|-3--3--0-----------8--8--5----------8--8--3-----------7--7--1-----------|


Bridge
|------------------------------------------------------------------------|
|------------------------------------------------------------------------|
|-------------------5--5--2----------5--5--------------4--4--------------|
|-5--5--2-----------5--5--2----------5--5--5-----------4--4--3-----------| x1
|-5--5--2-----------3--3--0----------3--3--5-----------2--2--3-----------|
|-3--3--0----------------------------------3-----------------1-----------|


Chorus

|------------------------------------------------------------------------|
|------------------------------------------------------------------------|
|-------------------5--5--2----------5--5--------------4--4--------------|
|-5--5--2-----------5--5--2----------5--5--5-----------4--4--3-----------| x4
|-5--5--2-----------3--3--0----------3--3--5-----------2--2--3-----------|
|-3--3--0----------------------------------3-----------------1-----------|

During only the 3rd and 4th time of this chorus
|0-7-0-7-0-7-0-7-10~0-5-0-5-0-5-0-5-8~0-3-0-3-0-3-0-3-7~-0-5-0-5-0-5-0-5-12~|
|------------------------------------------------------------------------|
|------------------------------------------------------------------------|
|------------------------------------------------------------------------| x2
|------------------------------------------------------------------------|
|------------------------------------------------------------------------|

Outro

|------------------------------------------------------------------------
|------------------------------------------------------------------------
|------------------------------------------------------------------------
|-5--5--2-------2-------2-----2-------3--3--2-------2-------2-----2------ 
|-5--5--2-------2-------2-----2-------3--3--2-------2-------2-----2------
|-3--3--0-x-x-x-0-x-x-x-0-x-x-0-x-x-x-1--1--0-x-x-x-0-x-x-x-0-x-x-0-x-x-x

---------|
---------|
---------|
-5--5--2-|
-5--5--2-|
-3--3--0-|
            
Hard to play? Try these video lessons and learn fast. | Correct




comments powered by Disqus
↑ Back to top | Tablatures and chords are parodies/interpretations of the original songs. You may use it for private study, scholarship, research or language learning purposes only