» » »

Rammstein, Du Riechst So Gut Bass tabs (ver.1)

Artists:  A B C D E F G H I J K L M N O P Q R S T U V W X Y Z # 

Du Riechst So Gut Bass tabs (ver.1)

Rammstein Tabs
Rating:
0/5 (0 votes)
Du Riechst So Gut lessons Tabs too difficult? Try these video lessons and learn fast
                RAMMSTEIN DU RICHST SO GUT

symbols
' = mute/brake

Violent's BASS TAB
tuning  -DADG-

before bass steps in there's a synthic bass on a background with very difficult rhytm to got right but here's a rhytm that
can be played for that with a real bass

|------------------------------------------------------
|------------------------------------------------------
|------------------------------------------------------
|--5-5--5-5--5-5--5--5-5--5--5-5--5-5--5-5--5--5-5--5\- repeat

intro and verse u know the rhytm
----------|------------------------------------
----------|------------------------------------
----------|------------------------------------
--0-1-0-1-|-0-1-1-0-1--0-0-1-0-1-(0)-'-0-1-0-1-

a little brake

---------------------|------------------------------------
---------------------|------------------------------------
---------------------|------------------------------------
--0-0-1-1--0-1-1-0-1-|-0-0-1-0-1--0-1-1-0-1-(0)-'-0-1-0-1-

only synthic bass, can be played with a real bass too for example u can play almost same rhytm wiht the same notes
but an octave higher

like
------------------|---------------------------------
------------------|---------------------------------
------------------|---------------------------------
--12-13-13--12-13-|-12-13-13-12-13--12-12-13-12-13--

variation (He plays this on a live gigs)
NOTE: I try to explain how to got this sound good:
Play the note between the hits of a drummer. That wasn't very clearly said..
So a - when a drummer hits a bassdrumm with his freekin leg, you hit a D note
after that and mute it rightaway before the drummer hits his bassdrumm again.
Got it? If ya didn't.. go and play the song with a band and then you most
get the idea.

--------------------------------------
--------------------------------------
--------------------------------------
--0-r-0-r-0-r-0-r-0-r-0-r-0-r-0-r-0-r-

chorus
----------------------------------
----------------------------------
----------------------------------
--5-5-5-5-8-8-8-8-0-0-0-0-0-0-0-0-

--------------------------------------
--------------------------------------
--------------------------------------
--10-10-10-10-8-8-8-8-7-7-7-7-7-7-7-7-
            
Submit corrections

comments powered by Disqus
↑ Back to top | Rammstein Bass for Du Riechst So Gut. Lyrics for acoustic guitar and electric guitar. Tablatures and chords are parodies/interpretations of the original songs. You may use it for private study, scholarship, research or language learning purposes only