» » »

Rammstein, Der Meister Bass tabs (ver.1)

Artists:  A B C D E F G H I J K L M N O P Q R S T U V W X Y Z # 

Der Meister Bass tabs (ver.1)

Rammstein Tabs
 Rating:
4/5 (4 votes)
Der Meister lessons Tabs too difficult? Try these video lessons and learn fast
1
                (enters @ 0:30)

Riff 1: (x14)
G:--------------|--------------|--------------|---------------|
D:--------------|--------------|--------------|---------------|
A:--------------|--------------|--------------|---------------|
D:-12--0--10--0-|-12--0--10--0-|-12--0--10--0-|-12--0--10--13-|

Riff 2: (x4)
G:--------------|--------------|--------------|--------------|
D:--------------|--------------|--------------|--------------|
A:--------------|--------------|--------------|--------------|
D:-12--0--10--0-|-12--0--10--0-|-12--0--10--0-|-12--0--10--R-|

Riff 1 (x14)
Riff 2 (x4)
Riff 1 (x2)

Riff 3: (x2)
G:--------------|--------------|--------------|---------------|
D:--------------|--------------|--------------|---------------|
A:--------------|--------------|--------------|---------------|
D:-14--0--12--0-|-14--0--12--0-|-14--0--12--0-|-14--0--12--15-|

Riff 4: (x8)
G:---------------|
D:---------------|
A:---5-7*---5-7*-|
D:-0------0------|

Riff 5: (x4)
G:---------------|---------------|
D:---------------|---------------|
A:---3-5*---3-5*-|---3-5*---5-7*-|
D:-0------0------|-0------0------|

Riff 1 (x4)
Riff 2 (x4)

End:
G:--------------|--------------|--------------|---------------|-------------|
D:--------------|--------------|--------------|---------------|-------------|
A:--------------|--------------|--------------|---------------|-------------|
D:-12--0--10--0-|-12--0--10--0-|-12--0--10--0-|-12--0--10--13-|-12--R--R--R-|

Break till end
            
Submit corrections

comments powered by Disqus
↑ Back to top | Rammstein Bass for Der Meister. Lyrics for acoustic guitar and electric guitar. 1 Tablatures and chords are parodies/interpretations of the original songs. You may use it for private study, scholarship, research or language learning purposes only