» » »

Rammstein, Bestrafe Mich Bass tabs (ver.1)

Artists:  A B C D E F G H I J K L M N O P Q R S T U V W X Y Z # 

Bestrafe Mich Bass tabs (ver.1)

Rammstein Tabs
 Rating:
4/5 (4 votes)
Bestrafe Mich lessons Tabs too difficult? Try these video lessons and learn fast
                D-drop Tuning (GDAD)


Riff #1
				
G------------------	
D------------------	(x6)  
A-2---0-2---0-2----		
D---3-----3-----3--		

Riff #2
	  (x7) then....
G----------|---------------
D----------|---------------
A----------|---------------
D--422-2-2-|-4320-4320-----

Riff #3 (not actually played by bass, but works)

G--------------------------- 
D--------------------------- 	
A--------------------------- 
D--2--2--2--2--2--2--5-3-2--

Riff #4	
	   (x3)
G---------|------------ 
D---------|------------ (x4)
A---------|------------ 
D-2-2-2-2-|-2-2-1-0----

Ending
G------------------------ 
D------------------------ 
A------------------------ 
D--2-2-2-2-2-4320-4320-2-

Song Order
Riff 1 
Riff 2 
Riff 3 
Riff 4 
Riff 1 
Riff 2 
Riff 4 
Riff 1
Riff 2
Rest for Keyboard solo
Riff 1 x2
Riff 2 x4 (without tail, listen to song)
Ending

Thanks for reading, this is my first tab,
if anyone has suggestions or corrections,
	Hurricanrana
            
Submit corrections

comments powered by Disqus
↑ Back to top | Rammstein Bass for Bestrafe Mich. Lyrics for acoustic guitar and electric guitar. Tablatures and chords are parodies/interpretations of the original songs. You may use it for private study, scholarship, research or language learning purposes only