» » »

Adios Bass tabs (ver.1)

Artists:  A B C D E F G H I J K L M N O P Q R S T U V W X Y Z # 

Adios Bass tabs (ver.1)

Rammstein
Rating:
4/5 (3 votes)

Hard to play? Try these video lessons and learn fast.
                This is the entire song, it's kind of lengthy, enjoy

G-------|
D---3---|
A-3---5-|
E-------|

G-----------------------------------------------------------------|
D-------------------------------------------------------------3---|
A-3h5-5-5-5-5-5-5-3h5-5-5-5-5-5-5-3h5-5-5-5-5-5-5-5-5-5-5-5-3---5-|
E-----------------------------------------------------------------|

G-------------------------------------------------------------|
D---------------------------------------------------------3---|
A-5-5-5-5-5-5-3h5-5-5-5-5-5-5-3h5-5-5-5-5-5-5-5-5-5-5-5-3---5-|
E-------------------------------------------------------------|

G-------------------------------------------------------------|
D---------------------------------------------------------3---|
A-5-5-5-5-5-5-3h5-5-5-5-5-5-5-3h5-5-5-5-5-5-5-5-5-5-5-5-3---5-|
E-------------------------------------------------------------|

G-------------------------------------------------------------|
D---------------------------------------------------------3---|
A-5-5-5-5-5-5-3h5-5-5-5-5-5-5-3h5-5-5-5-5-5-5-5-5-5-5-5-3---5-|
E-------------------------------------------------------------|

G----------------------------------------------------------|
D---3----------------3----------------3----------------3---|
A-3---5------------3---5------------3---5------------3---5-|
E----------------------------------------------------------|

G-----------------------------------------------------------------|
D-------------------------------------------------------------3---|
A-3h5-5-5-5-5-5-5-3h5-5-5-5-5-5-5-3h5-5-5-5-5-5-5-5-5-5-5-5-3---5-|
E-----------------------------------------------------------------|

G-------------------------------------------------------------|
D---------------------------------------------------------3---|
A-5-5-5-5-5-5-3h5-5-5-5-5-5-5-3h5-5-5-5-5-5-5-5-5-5-5-5-3---5-|
E-------------------------------------------------------------|

G-------------------------------------------------------------|
D---------------------------------------------------------3---|
A-5-5-5-5-5-5-3h5-5-5-5-5-5-5-3h5-5-5-5-5-5-5-5-5-5-5-5-3---5-|
E-------------------------------------------------------------|

G-------------------------------------------------------------|
D---------------------------------------------------------3---|
A-5-5-5-5-5-5-3h5-5-5-5-5-5-5-3h5-5-5-5-5-5-5-5-5-5-5-5-3---5-|
E-------------------------------------------------------------|

G-------------------------------------------------------------|
D---------------------------------------------------------3---|
A-5-5-5-5-5-5-3h5-5-5-5-5-5-5-3h5-5-5-5-5-5-5-5-5-5-5-5-3---5-|
E-------------------------------------------------------------|

G-------------------------------------------------------------|
D---------------------------------------------------------3---|
A-5-5-5-5-5-5-3h5-5-5-5-5-5-5-3h5-5-5-5-5-5-5-5-5-5-5-5-3---5-|
E-------------------------------------------------------------|

G-------------------------------------------------------------|
D---------------------------------------------------------3---|
A-5-5-5-5-5-5-3h5-5-5-5-5-5-5-3h5-5-5-5-5-5-5-5-5-5-5-5-3---5-|
E-------------------------------------------------------------|

G-------------------------------------------------------------|
D---------------------------------------------------------3---|
A-5-5-5-5-5-5-3h5-5-5-5-5-5-5-3h5-5-5-5-5-5-5-5-5-5-5-5-3---5-|
E-------------------------------------------------------------|

G----------------------------------------------------------|
D---3----------------3----------------3----------------3---|
A-3---5------------3---5------------3---5------------3---5-|
E----------------------------------------------------------|

G----------------------------------------------------------|
D---3----------------3----------------3----------------3---|
A-3---5------------3---5------------3---5------------3---5-|
E----------------------------------------------------------|

G----------------------------------------------------------|
D---3----------------3----------------3----------------3---|
A-3---5------------3---5------------3---5------------3---5-|
E----------------------------------------------------------|

G-----------------------------------------|
D------------------------------------3----|
A-3h5------------------------------3---5--|
E-----------------------------------------|

G-----------------------------------------------------------------|
D-------------------------------------------------------------3---|
A-3h5-5-5-5-5-5-5-3h5-5-5-5-5-5-5-3h5-5-5-5-5-5-5-5-5-5-5-5-3---5-|
E-----------------------------------------------------------------|

G-------------------------------------------------------------|
D---------------------------------------------------------3---|
A-5-5-5-5-5-5-3h5-5-5-5-5-5-5-3h5-5-5-5-5-5-5-5-5-5-5-5-3---5-|
E-------------------------------------------------------------|

G-------------------------------------------------------------|
D---------------------------------------------------------3---|
A-5-5-5-5-5-5-3h5-5-5-5-5-5-5-3h5-5-5-5-5-5-5-5-5-5-5-5-3---5-|
E-------------------------------------------------------------|

G-------------------------------------------------------------|
D---------------------------------------------------------3---|
A-5-5-5-5-5-5-3h5-5-5-5-5-5-5-3h5-5-5-5-5-5-5-5-5-5-5-5-3---5-|
E-------------------------------------------------------------|

G-------------------------------------------------------------|
D---------------------------------------------------------3---|
A-5-5-5-5-5-5-3h5-5-5-5-5-5-5-3h5-5-5-5-5-5-5-5-5-5-5-5-3---5-|
E-------------------------------------------------------------|

G-------------------------------------------------------------|
D---------------------------------------------------------3---|
A-5-5-5-5-5-5-3h5-5-5-5-5-5-5-3h5-5-5-5-5-5-5-5-5-5-5-5-3---5-|
E-------------------------------------------------------------|

G-------------------------------------------------------------|
D---------------------------------------------------------3---|
A-5-5-5-5-5-5-3h5-5-5-5-5-5-5-3h5-5-5-5-5-5-5-5-5-5-5-5-3---5-|
E-------------------------------------------------------------|

G-------------------------------------------------------------|
D---------------------------------------------------------3---|
A-5-5-5-5-5-5-3h5-5-5-5-5-5-5-3h5-5-5-5-5-5-5-5-5-5-5-5-3---5-|
E-------------------------------------------------------------|

G-------------------------------------------------------------|
D---------------------------------------------------------3---|
A-5-5-5-5-5-5-3h5-5-5-5-5-5-5-3h5-5-5-5-5-5-5-5-5-5-5-5-3---5-|
E-------------------------------------------------------------|

G-------------------------------------------------------------|
D---------------------------------------------------------3---|
A-5-5-5-5-5-5-3h5-5-5-5-5-5-5-3h5-5-5-5-5-5-5-5-5-5-5-5-3---5-|
E-------------------------------------------------------------|

G-------------------------------------------------------------|
D---------------------------------------------------------3---|
A-5-5-5-5-5-5-3h5-5-5-5-5-5-5-3h5-5-5-5-5-5-5-5-5-5-5-5-3---5-|
E-------------------------------------------------------------|

G-------------------------------------------------------------|
D---------------------------------------------------------3---|
A-5-5-5-5-5-5-3h5-5-5-5-5-5-5-3h5-5-5-5-5-5-5-5-5-5-5-5-3---5-|
E-------------------------------------------------------------|

G-------------------------------------------------------------|
D---------------------------------------------------------3---|
A-5-5-5-5-5-5-3h5-5-5-5-5-5-5-3h5-5-5-5-5-5-5-5-5-5-5-5-3---5-|
E-------------------------------------------------------------|

G-------------------------------------------------------------|
D---------------------------------------------------------3---|
A-5-5-5-5-5-5-3h5-5-5-5-5-5-5-3h5-5-5-5-5-5-5-5-5-5-5-5-3---5-|
E-------------------------------------------------------------|

G-------------------------------------------------------------|
D---------------------------------------------------------3---|
A-5-5-5-5-5-5-3h5-5-5-5-5-5-5-3h5-5-5-5-5-5-5-5-5-5-5-5-3---5-|
E-------------------------------------------------------------|

G-------------------------------------------------------------|
D---------------------------------------------------------3---|
A-5-5-5-5-5-5-3h5-5-5-5-5-5-5-3h5-5-5-5-5-5-5-5-5-5-5-5-3---5-|
E-------------------------------------------------------------|

Don’t play for 8 measures

G--------------------------------------------------------------------|
D------------------3-3-3-3-5-5-5-5-----------------------------------|
A-1-1-1-1-1-1-1-1-------------------5-5-5-5-5-5-5-5--5-5-5-5-3-3-3-3-|
E--------------------------------------------------------------------|

G--------------------------------------------------------------------|
D------------------3-3-3-3-5-5-5-5-----------------------------------|
A-1-1-1-1-1-1-1-1-------------------5-5-5-5-5-5-5-5--5-5-5-5-3-3-3-3-|
E--------------------------------------------------------------------|

G---------------------------------------------------------------------|
D---------------------------------------------------------------------|
A-5-------------5------------5------------5------------5------------5-|
E---------------------------------------------------------------------|

G-----------------------------------------------------------------|
D-------------------------------------------------------------3---|
A-3h5-5-5-5-5-5-5-3h5-5-5-5-5-5-5-3h5-5-5-5-5-5-5-5-5-5-5-5-3---5-|
E-----------------------------------------------------------------|

G-------------------------------------------------------------|
D---------------------------------------------------------3---|
A-5-5-5-5-5-5-3h5-5-5-5-5-5-5-3h5-5-5-5-5-5-5-5-5-5-5-5-3---5-|
E-------------------------------------------------------------|

G-------------------------------------------------------------|
D---------------------------------------------------------3---|
A-5-5-5-5-5-5-3h5-5-5-5-5-5-5-3h5-5-5-5-5-5-5-5-5-5-5-5-3---5-|
E-------------------------------------------------------------|

G-------------------------------------------------------------|
D---------------------------------------------------------3---|
A-5-5-5-5-5-5-3h5-5-5-5-5-5-5-3h5-5-5-5-5-5-5-5-5-5-5-5-3---5-|
E-------------------------------------------------------------|

G-------------------------------------------------------------|
D---------------------------------------------------------3---|
A-5-5-5-5-5-5-3h5-5-5-5-5-5-5-3h5-5-5-5-5-5-5-5-5-5-5-5-3---5-|
E-------------------------------------------------------------|

G-------------------------------------------------------------|
D---------------------------------------------------------3---|
A-5-5-5-5-5-5-3h5-5-5-5-5-5-5-3h5-5-5-5-5-5-5-5-5-5-5-5-3---5-|
E-------------------------------------------------------------|

G-------------------------------------------------------------|
D---------------------------------------------------------3---|
A-5-5-5-5-5-5-3h5-5-5-5-5-5-5-3h5-5-5-5-5-5-5-5-5-5-5-5-3---5-|
E-------------------------------------------------------------|

G-------------------------------------------------------------|
D---------------------------------------------------------3---|
A-5-5-5-5-5-5-3h5-5-5-5-5-5-5-3h5-5-5-5-5-5-5-5-5-5-5-5-3---5-|
E-------------------------------------------------------------|

G-------------------------------------------------------------|
D---------------------------------------------------------3---|
A-5-5-5-5-5-5-3h5-5-5-5-5-5-5-3h5-5-5-5-5-5-5-5-5-5-5-5-3---5-|
E-------------------------------------------------------------|

G-------------------------------------------------------------|
D---------------------------------------------------------3---|
A-5-5-5-5-5-5-3h5-5-5-5-5-5-5-3h5-5-5-5-5-5-5-5-5-5-5-5-3---5-|
E-------------------------------------------------------------|

G-------------------------------------------------------------|
D---------------------------------------------------------3---|
A-5-5-5-5-5-5-3h5-5-5-5-5-5-5-3h5-5-5-5-5-5-5-5-5-5-5-5-3---5-|
E-------------------------------------------------------------|

G-------------------------------------------------------------|
D---------------------------------------------------------3---|
A-5-5-5-5-5-5-3h5-5-5-5-5-5-5-3h5-5-5-5-5-5-5-5-5-5-5-5-3---5-|
E-------------------------------------------------------------|

G-------------------------------------------------------------|
D---------------------------------------------------------3---|
A-5-5-5-5-5-5-3h5-5-5-5-5-5-5-3h5-5-5-5-5-5-5-5-5-5-5-5-3---5-|
E-------------------------------------------------------------|

G-------------------------------------------------------------|
D---------------------------------------------------------3---|
A-5-5-5-5-5-5-3h5-5-5-5-5-5-5-3h5-5-5-5-5-5-5-5-5-5-5-5-3---5-|
E-------------------------------------------------------------|

G-------------------------------------------------------------|
D---------------------------------------------------------3---|
A-5-5-5-5-5-5-3h5-5-5-5-5-5-5-3h5-5-5-5-5-5-5-5-5-5-5-5-3---5-|
E-------------------------------------------------------------|

G-------------------------------------------------------------|
D---------------------------------------------------------3---|
A-5-5-5-5-5-5-3h5-5-5-5-5-5-5-3h5-5-5-5-5-5-5-5-5-5-5-5-3---5-|
E-------------------------------------------------------------|

Don’t play for 24 measures

G--------------------------------------------------------------------|
D------------------3-3-3-3-5-5-5-5-----------------------------------|
A-1-1-1-1-1-1-1-1-------------------5-5-5-5-5-5-5-5--5-5-5-5-3-3-3-3-|
E--------------------------------------------------------------------|

G--------------------------------------------------------------------|
D------------------3-3-3-3-5-5-5-5-----------------------------------|
A-1-1-1-1-1-1-1-1-------------------5-5-5-5-5-5-5-5--5-5-5-5-3-3-3-3-|
E--------------------------------------------------------------------|

G--------------------------------------------------------------------|
D------------------3-3-3-3-5-5-5-5-----------------------------------|
A-1-1-1-1-1-1-1-1-------------------5-5-5-5-5-5-5-5--5-5-5-5-3-3-3-3-|
E--------------------------------------------------------------------|

G--------------------------------------------------------------------|
D------------------3-3-3-3-5-5-5-5-----------------------------------|
A-1-1-1-1-1-1-1-1-------------------5-5-5-5-5-5-5-5--5-5-5-5-3-3-3-3-|
E--------------------------------------------------------------------|

G--------------------------------------------------------------------|
D------------------3-3-3-3-5-5-5-5-----------------------------------|
A-1-1-1-1-1-1-1-1-------------------5-5-5-5-5-5-5-5--5-5-5-5-3-3-3-3-|
E--------------------------------------------------------------------|

G--------------------------------------------------------------------|
D------------------3-3-3-3-5-5-5-5-----------------------------------|
A-1-1-1-1-1-1-1-1-------------------5-5-5-5-5-5-5-5--5-5-5-5-3-3-3-3-|
E--------------------------------------------------------------------|

G--------------------------------------------------------------------|
D------------------3-3-3-3-5-5-5-5-----------------------------------|
A-1-1-1-1-1-1-1-1-------------------5-5-5-5-5-5-5-5--5-5-5-5-3-3-3-3-|
E--------------------------------------------------------------------|

G--------------------------------------------------------------------|
D------------------3-3-3-3-5-5-5-5-----------------------------------|
A-1-1-1-1-1-1-1-1-------------------5-5-5-5-5-5-5-5--5-5-5-5-3-3-3-3-|
E--------------------------------------------------------------------|

G-------------------------------------------------------------------|
D-------------3--3--3-5-5-5-----------------------------------------|
A-1--1--1--1-----------------5*******--********--********--********-|
E-------------------------------------------------------------------|
            
Hard to play? Try these video lessons and learn fast. | Correct




comments powered by Disqus
↑ Back to top | Tablatures and chords are parodies/interpretations of the original songs. You may use it for private study, scholarship, research or language learning purposes only