>
 >
Vietnow 2

Vietnow 2 Guitar Tabs

Rage Against The Machine - Vietnow 2 chords, tabs, tablatures, lyrics

Guitar lessons | Add/correct | Request | Top 50 tabs Artists:  A B C D E F G H I J K L M N O P Q R S T U V W X Y Z 0-9

Vietnow 2 Guitar Tabs – Rage Against The Machine

CD, Sheet music, Poster

Do you like Vietnow 2? Share with your friends now
Bass TabsBass Tabs v2TabsTabs v2Tabs v3
Use a digitech Whammy pedal set to harmonize one octave lower and use distortion.
Intro: 
E[---------------------------------------------------------]
B[---------------------------------------------------------]
G[---------------------------------------------------------]
D[---------------------------------------------------------]
A[--------0-0--------0-0------------------------0-0--------]
E[-0-2-2-0----0-2-2-0----0-2-2-0-2-2-2-0-2-2-2-0-----------]

E[---------------------------------------------------------]
B[---------------------------------------------------------]
G[---------------------------------------------------------]
D[---------------------------------------------------------]
A[------------0-0--------------------------0-0-------------]
E[---0-2-2-0-------0-2-2-0-2-2-2-0-2-2-2-0-----------------]

E[---------------------------------------------------------]
B[---------------------------------------------------------]
G[---------------------------------------------------------]
D[---------------------------------------------------------]
A[------------0-0--------------------------0-0-------------]
E[---0-2-2-0-------0-2-2-0-2-2-2-0-2-2-2-0-----------------]

E[---------------------------------------------------------]
B[-------------------------7-------------------------------]
G[-------------------------6(use volume knob to get louder)]
D[-------------------------7-------------------------------]
A[------------0-0----------0-------------------------------]
E[---0-2-2-0-----------------------------------------------]

Verse:
E[---------------------------------------------------------]
B[----------------------------7----------------------------]
G[----------------------------6----------------------------]
D[----------------------------7----------------------------]
A[---------0-0----------------0----------------------------]
E[-0-2-2-0-----0-2-2-0-------------------------------------]

Chorus:
E[---------------------------------------------------------]
B[---------------------------------------------------------]
G[---------------------------------------------------------]
D[-4-4---------------4-4------------4-4--------------------]
A[---------------------------------------------------------]
E[-----0-2-0-5-5^-0------0-2-0-5-5^-----0-2-0-5-4^-0-------]

E[---------------------------------------------------------]
B[---------------------------------------------------------]
G[-----x-x-x-x-x-x-x-x-x-x-x-x-x-x-x-----------------------]
D[-4-4-x-x-x-x-x-x-x-x-x-x-x-x-x-x-x-----------------------]
A[-----x-x-x-x-x-x-x-x-x-x-x-x-x-x-x-----------------------]
E[---------------------------------------------------------]
  (repeat again but without the scratching at the end)
Verse:
Chorus:
Bridge:
 (with no whammy pedal)
E[---------------------------------------------------------]
B[---------------------------------------------------------]
G[-5-4-5-4-5-4-5-4-----------------------------------------]
D[-x-x-x-x-x-x-x-x--( repeat alot )------------------------]
A[-2-2-2-2-2-2-2-2-----------------------------------------]
E[---------------------------------------------------------]

then it goes into
E[---------------------------------------------------------]
B[---------------------------------------------------------]
G[---------------------------------------------------------]
D[---------------------------------------------------------]
A[-3s9--3---3s9-3---3s9-3---3s9-9-7-9---9-7-9--------------]
E[--------0-------0-------0--------------------------------]

Interlude:
E[---------------------------------------------------------]
B[---------------------------------------------------------]
G[---------------------4s6---6s0---------------------------]
D[---------------------------------------------------------]
A[---------0-0------------------------------------------0-0]
E[-0-2-2-0-----0-2-2-0-----------0-2-2-0-2-2-2-0-2-2-2-0---]

E[---------------------------------------------------------]
B[---------------------------------------------------------]
G[---------4s6--6s0---------4s6--6s0-----------------------]
D[---------------------------------------------------------]
A[------------------------------------5---4---5------------]
E[-0-2-2-0----------0-2-2-0---------x-3-x-2-x-3------------]

Outro:
E[---------------------------------------------------------]
B[---------------------------------------------------------]
G[----------4s9-9-9-9-9-9-9-9-9-9-9-9-9-9-9-9-9-9-9--------]
D[---------------------------------------------------------]
A[---------------------------------------------------------]
E[-0-2-2-0-2-----------------------------------------------]
            (cover the strins and tap 9 with right hand)

E[---------------------------------------------------------]
B[---------------------------------------------------------]
G[---------------------------------------------------------]
D[---------------------------------------------------------]
A[-----------5----4----5---( repeat 3 more times )---------]
E[-0-2-2-0-x-3--x-2--x-3-----------------------------------]

E[---------------------------------------------------------]
B[---------------------------------------------------------]
G[-9-9-9-9-9-9-9-9-9-9-9-9-9-9-9-10-10-10-10-10-10-10-10-10]
D[---------------------------------------------------------]
A[---------------------------------------------------------]
E[---------------------------------------------------------]
   (do the same right hand tapping for these parts
E[---------------------------------------------------------]
B[---------------------------------------------------------]
G[-10-10-10-10-10-10---------------------------------------]
D[---------------------------------------------------------]
A[---------------------------------------------------------]
E[---------------------------------------------------------]

Long live Rage!





Comments


Popular Rage Against The Machine tabs & chords
Bombtrack Bass Tabs
Degeneration X Bass Tabs
Maria Bass Tabs
Sleep Now In The Fire 3 Bass Tabs
The Ghost Of Tom Joad 2 Bass Tabs
Year Of Tha Boomerang Drum Tabs
Freedom 2 Tabs
Maggies Farm 3 Tabs
Voice Of The Voicless Tabs
Wind Below 1 Tabs


Song lyrics



↑ Back to top | Tablatures and chords are parodies/interpretations of the original songs. You may use it for private study, scholarship, research or language learning purposes only
© 2014 AZChords.com Contact us | Privacy policy | DMCA | Add/correct tabs | Request tabs | Top 50 tabs