>
 >
Vietnow 1

Vietnow 1 Guitar Tabs

Rage Against The Machine - Vietnow 1 chords, tabs, tablatures, lyrics

Guitar lessons | Add/correct | Request | Top 50 tabs Artists:  A B C D E F G H I J K L M N O P Q R S T U V W X Y Z 0-9

Vietnow 1 Guitar Tabs – Rage Against The Machine

CD, Sheet music, Poster

Do you like Vietnow 1? Share with your friends now
Bass TabsBass Tabs v2TabsTabs v2Tabs v3
Standard tuning

NOTE: THIS IS THE ABSOLUTELY MOST CORRECT WAY TO PLAY THIS SONG!

INTRO/CHORUS
w/Wah on as filter.

|------------------------------|
|------------------------------|
|------------------------------|
|------------------------------|
|-----------0-0-----------0-0--|
|---0-2-2-0-------0-2-2-0------|

|--------------------------------------------|
|--------------------------------------------|
|--------------------------------------------|
|--------------------------------------------|
|-------------------------0-0-----------0-0--|
|--0-2-2-0-2-2-2-2-22-0--------0-2-2-0------|


There is a feedback/volume swell to the pitch of E, then the drums and bass kick in and the intro is repeated.

VERSE

|---------------------|
|---------------------|
|---------------------|
|---------------------|
|---------------------|
|--0-2-2-0-2-0-2-2----|

PRE-CHORUS

* = Pre-bend and then release.
|-------------------------------|
|-------------------------------|
|-------------------------------|
|--4-4--------------------------|
|--------------------*----------|
|--2-2--0--2--0--5--(6)-5--0----|
Play twice

|--------------------------------------------------------|
|-------------------------------x-x-x-x-x-x-x-x-x-x-x-x--|
|-------------------------------x-x-x-x-x-x-x-x-x-x-x-x--|
|--4-4---------------------4-4-x-x-x-x-x-x-x-x-x-x-x-x--|
|-------------------------------x-x-x-x-x-x-x-x-x-x-x-x--|
|--2-2--0--2-0-5-4-0---2-2---------------------------|


BRIDGE
Repeated many times
|---------------------------------|--------------|
|-8---7---8---7---8---7---8---7---|--------------|
|-6---6---6---6---6---6---6---6---|--------------|
|-4---4---4---4---4---4---4---4---|--------------|
|---------------------------------|--9-7-9--7-9--|
|---------------------------------|--------------|

w/Wah                   on fourth time play below riff: 
|-----------------------|--------------------------------|
|-----------------------|--------------------------------|
|-----------------------|--------------------------------|
|-----------------------|--------------------------------|
|--3-----/9------------ |--3-----/9-----9-7-9-----7-9----|
|---------------8p0-----|--------------------------------|

After bridge play the chorus like this:
|-----------------------------|
|-----------------------------|
|-----------------------4-/6--|
|-----------------------------|
|---------0-0-----------2-/4--|
|-0-2-2-0-------0-2-2-0-------|

|---------------------------------------------|
|---------------------------------------------|
|---------------------------------------4-/6--|
|---------------------------------------------|
|-------------------------0-0-----------2-/4--|
|--0-2-2-0-2-2-2-2-22-0--------0-2-2-0-------|

After the third time play this, and then go into the chorus...again!

|-------------------|
|-------------------|
|-------------------|
|-------------------|
|--x-5-x-4-x-5------|
|--x-3-x-2-x-3------|

OUTRO
|------|------|
|------|------|
|------|------|
|--14--|--15- |
|------|------|
|--12--|------|
Both are tremelo picked.





Comments


Popular Rage Against The Machine tabs & chords
Bullet In The Head 3 Bass Tabs
Microphone Fiend Bass Tabs
People Of The Sun 2 Bass Tabs
Bombtrack 2 Tabs
Calm Like A Bomb Tabs
Microphone Fiend 2 Tabs
Snakecharmer 1 Tabs
Tire Me 2 Tabs
Vietnow Correct Tabs
Walk Away Tabs


Song lyrics



↑ Back to top | Tablatures and chords are parodies/interpretations of the original songs. You may use it for private study, scholarship, research or language learning purposes only
© 2014 AZChords.com Contact us | Privacy policy | DMCA | Add/correct tabs | Request tabs | Top 50 tabs