» » »

Rage Against The Machine, Vietnow Tabs (ver.2)

Artists:  A B C D E F G H I J K L M N O P Q R S T U V W X Y Z # 

Vietnow Tabs (ver.2)

Rage Against The Machine Tabs
 Rating:
4/5 (4 votes)
Vietnow lessons Tabs too difficult? Try these video lessons and learn fast
                Standard tuning

NOTE: THIS IS THE ABSOLUTELY MOST CORRECT WAY TO PLAY THIS SONG!

INTRO/CHORUS
w/Wah on as filter.

|------------------------------|
|------------------------------|
|------------------------------|
|------------------------------|
|-----------0-0-----------0-0--|
|---0-2-2-0-------0-2-2-0------|

|--------------------------------------------|
|--------------------------------------------|
|--------------------------------------------|
|--------------------------------------------|
|-------------------------0-0-----------0-0--|
|--0-2-2-0-2-2-2-2-2—2-0--------0-2-2-0------|


There is a feedback/volume swell to the pitch of E, then the drums and bass kick in and the intro is repeated.

VERSE

|---------------------|
|---------------------|
|---------------------|
|---------------------|
|---------------------|
|--0-2-2-0-2-0-2-2----|

PRE-CHORUS

* = Pre-bend and then release.
|-------------------------------|
|-------------------------------|
|-------------------------------|
|--4-4--------------------------|
|--------------------*----------|
|--2-2--0--2--0--5--(6)-5--0----|
Play twice

|--------------------------------------------------------|
|-------------------------------x-x-x-x-x-x-x-x-x-x-x-x--|
|-------------------------------x-x-x-x-x-x-x-x-x-x-x-x--|
|--4-4---------------------4-4—-x-x-x-x-x-x-x-x-x-x-x-x--|
|-------------------------------x-x-x-x-x-x-x-x-x-x-x-x--|
|--2-2--0--2—-0—-5—-4—-0---2-2---------------------------|


BRIDGE
Repeated many times
|---------------------------------|--------------|
|-8---7---8---7---8---7---8---7---|--------------|
|-6---6---6---6---6---6---6---6---|--------------|
|-4---4---4---4---4---4---4---4---|--------------|
|---------------------------------|--9-7-9--7-9--|
|---------------------------------|--------------|

w/Wah                   on fourth time play below riff: 
|-----------------------|--------------------------------|
|-----------------------|--------------------------------|
|-----------------------|--------------------------------|
|-----------------------|--------------------------------|
|--3-----/9------------ |--3-----/9-----9-7-9-----7-9----|
|---------------8p0-----|--------------------------------|

After bridge play the chorus like this:
|-----------------------------|
|-----------------------------|
|-----------------------4-/6--|
|-----------------------------|
|---------0-0-----------2-/4--|
|-0-2-2-0-------0-2-2-0-------|

|---------------------------------------------|
|---------------------------------------------|
|---------------------------------------4-/6--|
|---------------------------------------------|
|-------------------------0-0-----------2-/4--|
|--0-2-2-0-2-2-2-2-2—2-0--------0-2-2-0-------|

After the third time play this, and then go into the chorus...again!

|-------------------|
|-------------------|
|-------------------|
|-------------------|
|--x-5-x-4-x-5------|
|--x-3-x-2-x-3------|

OUTRO
|------|------|
|------|------|
|------|------|
|--14--|--15- |
|------|------|
|--12--|------|
Both are tremelo picked.
            
Submit corrections

comments powered by Disqus
↑ Back to top | Rage Against The Machine Tabs for Vietnow. Lyrics for acoustic guitar and electric guitar. Tablatures and chords are parodies/interpretations of the original songs. You may use it for private study, scholarship, research or language learning purposes only