» » »

Rage Against The Machine, Testify Tabs (ver.3)

Artists:  A B C D E F G H I J K L M N O P Q R S T U V W X Y Z # 

Testify Tabs (ver.3)

Rage Against The Machine Tabs
 Rating:
4/5 (4 votes)
Testify lessons Tabs too difficult? Try these video lessons and learn fast
                tuning d a d g b e

--6---------------------------------------------------------------
--5---------------------------------------------------------------
--4--------------------------------------------x-------------------
--5------------------3----------------5p3------x--------------------
---------3h5-----0----------0------------------x------0---5---3------
                                                1/2
---6--------------------------------------------12b----------------------
---5--------------------------------------------12b----------------------
---4-------------7----10-----------------x------12b--------------------------
---5-------------7----10---------5p3-----x-----------------------------------
----------3h5----7----10----0------------x---0--------------------------------

-------x--x---------x--x---------x--x-------x--x-------------------------------------
--19---x--x---19----x--x----19---x--x---19--x--x-------------------------------------
-------x--x---------x--x---------x--x-------x--x--------repeat 1 more time-----------
--17----------17------------17----------17-------------------------------------

bridge
---10-----------------------------------------------------------------------
---10---------------------------10----------------0------------------------------
---8----------------------------10----------------0-----------------------------
--------------------------------10----------------0---------------------------
            
Submit corrections

comments powered by Disqus
↑ Back to top | Rage Against The Machine Tabs for Testify. Lyrics for acoustic guitar and electric guitar. Tablatures and chords are parodies/interpretations of the original songs. You may use it for private study, scholarship, research or language learning purposes only